Guitar Tabs
song title    band name

Join Us Today!

Don't strum alone...
be a part of the largest online Christian music community. Browse thousands of guitar tabs and chat w/ musicians like yourself.


It's Free!

This tab has been rated a 5.00 out of 5 for accuracy. (1 vote)Sorry, but you must be logged in to rate this tab.
Click here to log-in, or you can click here to register.
(Registration is free)

All songs owned by corresponding publishing company. If you make copies of any song on this website, be sure to report your usage to CCLI.
Submitted by: sXcountry

All of Me by Project 86

Tuned to Drop D and down 1/2 step (Eb Bb Gb Db Ab Db)

There are two guitars in the song. Iíve seen P-86 live, and on this song, 
the bassist played guitar, but it may have been a 5-string bass, becuase he 
uses a pick to play anyways.

That will be guitar 2.

Intro Pt. 1
Guitar 1
Eb||-------------------------------------------------------|------|
Bb||------------------------------------second time only>>>|-6--8-|
Gb||-------------------------------------------------------|-5--7-|
Db||-------------------------------------------------------|-3--5-|
Ab||-------------------------------------------------------|------|
Db||-------------------------------------------------------|------|
  ||                                                              |
  ||                                                              |
Guitar 2 (5 string bass)                                          |
Bb||-------|-----------------------(2X)---------------------------|
Gb||-------|------------------------------------------------------|
Db||-3-5\0-|-------------------------------------------------3--5-|
Ab||-------|-----1---------1-----1h3p1-------1---------1----------|
Db||-------|-3h5---5-x-3h5---5-x-------5-3h5---5-x-3h5---5-x------|

Intro Pt. 2
Eb|------------------------------------------------------|
Bb|-------------------------------------------------6--8-|
Gb|------3---------3-----------------3---------3----5--7-|
Db|-3h5--5----3h5--5----3h5(2X)-3h5--5----3h5--5----3--5-|
Ab|---------3---------3-----------------3---------3------|
Db|------------------------------------------------------|
  |                                                      |
  |                                                      | (2X)
  |                                                      |
Bb|-----------------------(2X)---------------------------|
Gb|------------------------------------------------------|
Db|-------------------------------------------------3--5-|
Ab|-----1---------1-----1h3p1-------1---------1----------|
Db|-3h5---5-x-3h5---5-x-------5-3h5---5-x-3h5---5-x------|

Verse Pt. 1
E|------------------------------------------------------|
B|------------------------------------------------------|
G|------------------------------------------------------|
D|-------------------------------------------------3--5-|
A|-----1---------1-----1h3p1-------1---------1----------|
D|-3h5---5-0-3h5---5-0-------5-3h5---5-0-3h5---5-0------|
 |                                                      |
 |                                                      | (2X)
 |                                                      |
B|------------------------------------------------------|
G|------------------------------------------------------|
D|-------------------------------------------------3--5-|
A|-----1---------1-----1h3p1-------1---------1----------|
D|-3h5---5-x-3h5---5-x-------5-3h5---5-x-3h5---5-x------|

Verse Pt. 2
E|------------------------------------------------------|
B|-------------------------------------------------6--8-|
G|------3---------3-----------------3---------3----5--7-|
D|-3h5--5----3h5--5----3h5(2X)-3h5--5----3h5--5----3--5-|
A|---------3---------3-----------------3---------3------|
D|------------------------------------------------------|
 |                                                      |
 |                                                      | (2X)
 |                                                      |
B|------------------------(2X)--------------------------|
G|------------------------------------------------------|
D|-------------------------------------------------3--5-|
A|-----1---------1-----1h3p1-------1---------1----------|
D|-3h5---5-x-3h5---5-x-------5-3h5---5-x-3h5---5-x------|

Chorus (2X)
Pt. 1
E|-------------------------------------------------------------------------|
B|-8br--8br--8br--8br--8br-10-10-10-10-10-10-10-10-11-11-11-10-10-10-11-10-|
G|-------------------------------------------------------------------------|
D|-------------------------------------------------------------------------|
A|-------------------------------------------------------------------------|
D|-------------------------------------------------------------------------|
 |                                                                         |
 |                                                                         |
 |                                                                         |
B|-------------------------------------------------------------------------|
G|-----------------------------5--5-----5--------7-------------------------|
D|-5-5--5-5--5-5--8.-8-8-------5--5--5--5--------7-----0--3--0--3--0--7--5-|
A|-5-5--5-5--5-5--8.-8-8-------3--3--5--3--------5-----0--3--0--3--0--7--5-|
D|-5-5--5-5--5-5--8.-8-8-------------5-----------------0--3--0--3--0--7--5-|

Pt. 2
E|-------------------------------------------------------------------------|
B|-8br--8br--8br--8br--8br-10-10-10-10-10-10-10-10-11-11-11-11-13-13-13-13-|
G|-------------------------------------------------------------------------|
D|-------------------------------------------------------------------------|
A|-------------------------------------------------------------------------|
D|-------------------------------------------------------------------------|
 |                                                                         |
 |                                                                         |
 |                                                                         |
B|-------------------------------------------------------------------------|
G|-----------------------------5--5-----5--------7-------------------------|
D|-5-5--5-5--5-5--8--8-8-------5--5--5--5--------7-----0--3--0--3--0--7--5-|
A|-5-5--5-5--5-5--8--8-8-------3--3--5--3--------5-----0--3--0--3--0--7--5-|
D|-5-5--5-5--5-5--8--8-8-------------5-----------------0--3--0--3--0--7--5-|

Post Chorus (2X)
E|------------------------|
B|------------------------|
G|------------------------|
D|-3-5b---3-5-------------|
A|-3-5b---3-5-------------|
D|-3-5b---3-5-x-x-x-x-x-x-|
 |                        |
 |                        | (2X)
 |                        |
B|------------------------|
G|------------------------|
D|-3-5b---3-5-------------|
A|-3-5b---3-5-------------|
D|-3-5b---3-5-x-x-x-x-x-x-|


Pre Verse

E|--------------------------|
B|---------------------6--8-|
G|---------------------5--7-|
D|---------------------3--5-|
A|--------------------------|
D|--------------------------|
 |                          |
 |                          |
 |                          |
B|--------------------------|
G|--------------------------|
D|---------------------3--5-|
A|-----1---------1----------|
D|-3h5---5-x-3h5---5-x------|


Verse 2 Pt. 1
E|------------------------------------------------------|
B|------------------------------------------------------|
G|------------------------------------------------------|
D|-------------------------------------------------3--5-|
A|-----1---------1-----1h3p1-------1---------1----------|
D|-3h5---5-0-3h5---5-0-------5-3h5---5-0-3h5---5-0------|
 |                                                      |
 |                                                      | (2X)
 |                                                      |
B|------------------------------------------------------|
G|------------------------------------------------------|
D|-------------------------------------------------3--5-|
A|-----1---------1-----1h3p1-------1---------1----------|
D|-3h5---5-x-3h5---5-x-------5-3h5---5-x-3h5---5-x------|

Verse 2 Pt. 2
E|------------------------------------------------------|
B|-------------------------------------------------6--8-|
G|------3---------3-----------------3---------3----5--7-|
D|-3h5--5----3h5--5----3h5(2X)-3h5--5----3h5--5----3--5-|
A|---------3---------3-----------------3---------3------|
D|------------------------------------------------------|
 |                                                      |
 |                                                      | (2X)
 |                                                      |
B|------------------------(2X)--------------------------|
G|------------------------------------------------------|
D|-------------------------------------------------3--5-|
A|-----1---------1-----1h3p1-------1---------1----------|
D|-3h5---5-x-3h5---5-x-------5-3h5---5-x-3h5---5-x------|


Chorus (2X)
Pt. 1
E|-------------------------------------------------------------------------|
B|-8br--8br--8br--8br--8br-10-10-10-10-10-10-10-10-11-11-11-10-10-10-11-10-|
G|-------------------------------------------------------------------------|
D|-------------------------------------------------------------------------|
A|-------------------------------------------------------------------------|
D|-------------------------------------------------------------------------|
 |                                                                         |
 |                                                                         |
 |                                                                         |
B|-------------------------------------------------------------------------|
G|-----------------------------5--5-----5--------7-------------------------|
D|-5-5--5-5--5-5--8.-8-8-------5--5--5--5--------7-----0--3--0--3--0--7--5-|
A|-5-5--5-5--5-5--8.-8-8-------3--3--5--3--------5-----0--3--0--3--0--7--5-|
D|-5-5--5-5--5-5--8.-8-8-------------5-----------------0--3--0--3--0--7--5-|

Pt. 2
E|-------------------------------------------------------------------------|
B|-8br--8br--8br--8br--8br-10-10-10-10-10-10-10-10-11-11-11-11-13-13-13-13-|
G|-------------------------------------------------------------------------|
D|-------------------------------------------------------------------------|
A|-------------------------------------------------------------------------|
D|-------------------------------------------------------------------------|
 |                                                                         |
 |                                                                         |
 |                                                                         |
B|-------------------------------------------------------------------------|
G|-----------------------------5--5-----5--------7-------------------------|
D|-5-5--5-5--5-5--8.-8-8-------5--5--5--5--------7-----0--3--0--3--0--7--5-|
A|-5-5--5-5--5-5--8.-8-8-------3--3--5--3--------5-----0--3--0--3--0--7--5-|
D|-5-5--5-5--5-5--8.-8-8-------------5-----------------0--3--0--3--0--7--5-|


Post Chorus (2X)
E|------------------------|
B|------------------------|
G|------------------------|
D|-3-5b---3-5-------------|
A|-3-5b---3-5-------------|
D|-3-5b---3-5-x-x-x-x-x-x-|
 |                        |
 |                        | 
 |                        |
B|------------------------|
G|------------------------|
D|-3-5b---3-5-------------|
A|-3-5b---3-5-------------|
D|-3-5b---3-5-x-x-x-x-x-x-|


Interlude
E|------------------------------------------------------------------|
B|------------------------------------------------------------------|
G|----------------------------------------------------------------3-|
D|-3-5b-\---------------------------------------------------------3-|
A|-3-5b-\---------------------------------------------------------1-|
D|-3-5b-\-----------------------------------------------------------|
 |                                                                  |
 |                                                                  | (2X)
 |                                                                  |
B|------------------------------------------------------------------|
G|----------------------------------------------------------------3-|
D|----------------------------------------------------------------3-|
A|----------------------------------------------------------------1-|
D|-3-5-x-x-x-x-x-x--3-5-x-x-x-x-x-x--3-5-x-x-x-x-x-x--3-5-x-3-5-x---|

E|------(2X)-------|-------------------------------|
B|-----------------|-------------------------------|
G|-----------------|-----------------------------3-|
D|-3-5-------------|-3-5-----------0--3-5--3-5-0-3-|
A|-3-5-------------|-3-5-----------0--3-5--3-5-0-1-|
D|-3-5-x-x-x-x-x-x-|-3-5-x-x-x-x-x-0--3-5--3-5-0---|
 |                 |                               |
 |                 |                               |
 |                 |                               |
B|-----------------|-------------------------------|
G|-----------------|-----------------------------3-|
D|-3-5-------------|-3-5-----------0--3-5--3-5-0-3-|
A|-3-5-------------|-3-5-----------0--3-5--3-5-0-1-|
D|-3-5-x-x-x-x-x-x-|-3-5-x-x-x-x-x-0--3-5--3-5-0---|


Bridge

E|--------------------------------------------------------------------|
B|-3-3-3-3-3-3-3-3--3-3-3-3-3-3-3-3--1-1-1-1-1-1-1-1--1-1-1-1-4-4-1-1-|
G|--------------------------------------------------------------------|
D|--------------------------------------------------------------------|
A|--------------------------------------------------------------------|
D|--------------------------------------------------------------------|
 |                                                                    |
 |                                                                    |
 |                                                                    |
B|--------------------------------------------------------------------|
G|-----------------------------------3-5-5-5-5-5-5-5--3-5-5-5-5-5-5-5-|
D|-3-5-5-5-5-5-5-5--3-5-5-5-5-5-5-5--3-5-5-5-5-5-5-5--3-5-5-5-5-5-5-5-|
A|-3-5-5-5-5-5-5-5--3-5-5-5-5-5-5-5--1-3-3-3-3-3-3-3--1-3-3-3-3-3-3-3-|
D|-3-5-5-5-5-5-5-5--3-5-5-5-5-5-5-5-----------------------------------|

E|--------------------------------------------------------------------|
B|-3-3-3-3-3-3-3-3--3-3-3-3-3-3-3-3--1-1-1-1-1-1-1-1--1-1-1-1-1-1-1-1-|
G|--------------------------------------------------------------------|
D|--------------------------------------------------------------------|
A|--------------------------------------------------------------------|
D|--------------------------------------------------------------------|
 |                                                                    |
 |                                                                    |
 |                                                                    |
B|--------------------------------------------------------------------|
G|--------------------------------------------------------------------|
D|-3-5-5-5-5-5-5-5--3-5-5-5-5-5-5-5--5-3-3-3-3-3-3-3--5-3-3-3-3-3-3-3-|
A|-3-5-5-5-5-5-5-5--3-5-5-5-5-5-5-5--5-3-3-3-3-3-3-3--5-3-3-3-3-3-3-3-|
D|-3-5-5-5-5-5-5-5--3-5-5-5-5-5-5-5--5-3-3-3-3-3-3-3--5-3-3-3-3-3-3-3-|

E|-1010101010101010-1010101010101010--8-8-8-8-8-8-8-8--8-8-8-8-1111-8-8-|
B|----------------------------------------------------------------------|
G|----------------------------------------------------------------------|
D|----------------------------------------------------------------------|
A|----------------------------------------------------------------------|
D|----------------------------------------------------------------------|
 |                                                                      |
 |                                                                      |
 |                                                                      |
B|----------------------------------------------------------------------|
G|------------------------------------3-5-5-5-5-5-5-5--3-5-5-5--5-5-5-5-|
D|--3-5-5-5-5-5-5-5--3-5-5-5-5-5-5-5--3-5-5-5-5-5-5-5--3-5-5-5--5-5-5-5-|
A|--3-5-5-5-5-5-5-5--3-5-5-5-5-5-5-5--1-3-3-3-3-3-3-3--1-3-3-3--3-3-3-3-|
D|--3-5-5-5-5-5-5-5--3-5-5-5-5-5-5-5------------------------------------|


E|-1010101010101010-1010101010101010-8-8-8-8-8-8-8-8--8-8-8-8-8-8-8-8-|
B|--------------------------------------------------------------------|
G|--------------------------------------------------------------------|
D|--------------------------------------------------------------------|
A|--------------------------------------------------------------------|
D|--------------------------------------------------------------------|
 |                                                                    |
 |                                                                    |
 |                                                                    |
B|--------------------------------------------------------------------|
G|--------------------------------------------------------------------|
D|-3-5-5-5-5-5-5-5--3-5-5-5-5-5-5-5--5-3-3-3-3-3-3-3--5-3-3-3-3-3-3-3-|
A|-3-5-5-5-5-5-5-5--3-5-5-5-5-5-5-5--5-3-3-3-3-3-3-3--5-3-3-3-3-3-3-3-|
D|-3-5-5-5-5-5-5-5--3-5-5-5-5-5-5-5--5-3-3-3-3-3-3-3--5-3-3-3-3-3-3-3-|


Bridge Ending
E|----------------------------------------------------|
B|-8br--8br--8br--8br--8br----8br--8br--8br--8br--8br-|
G|----------------------------------------------------|
D|----------------------------------------------------|
A|----------------------------------------------------|
D|----------------------------------------------------|
 |                                                    |
 |                                                    |
 |                                                    |
B|----------------------------------------------------|
G|----------------------------------------------------|
D|-5--------------------------------------------------|
A|-5--------------------------------------------------|
D|-5--------------------------------------------------|


Chorus (2X)
Pt. 1
E|-------------------------------------------------------------------------|
B|-8br--8br--8br--8br--8br-10-10-10-10-10-10-10-10-11-11-11-10-10-10-11-10-|
G|-------------------------------------------------------------------------|
D|-------------------------------------------------------------------------|
A|-------------------------------------------------------------------------|
D|-------------------------------------------------------------------------|
 |                                                                         |
 |                                                                         |
 |                                                                         |
B|-------------------------------------------------------------------------|
G|-----------------------------5--5-----5--------7-------------------------|
D|-5-5--5-5--5-5--8.-8-8-------5--5--5--5--------7-----0--3--0--3--0--7--5-|
A|-5-5--5-5--5-5--8.-8-8-------3--3--5--3--------5-----0--3--0--3--0--7--5-|
D|-5-5--5-5--5-5--8.-8-8-------------5-----------------0--3--0--3--0--7--5-|

Pt. 2
E|-------------------------------------------------------------------------|
B|-8br--8br--8br--8br--8br-10-10-10-10-10-10-10-10-11-11-11-11-13-13-13-13-|
G|-------------------------------------------------------------------------|
D|-------------------------------------------------------------------------|
A|-------------------------------------------------------------------------|
D|-------------------------------------------------------------------------|
 |                                                                         |
 |                                                                         |
 |                                                                         |
B|-------------------------------------------------------------------------|
G|-----------------------------5--5-----5--------7-------------------------|
D|-5-5--5-5--5-5--8.-8-8-------5--5--5--5--------7-----0--3--0--3--0--7--5-|
A|-5-5--5-5--5-5--8.-8-8-------3--3--5--3--------5-----0--3--0--3--0--7--5-|
D|-5-5--5-5--5-5--8.-8-8-------------5-----------------0--3--0--3--0--7--5-|


Ending
E|---------(4X)-----------|-------||
B|------------------------|-------||
G|------------------------|-------||
D|-3-5b---3-5-------------|-3-5b\-||
A|-3-5b---3-5-------------|-3-5b\-||
D|-3-5b---3-5-x-x-x-x-x-x-|-3-5b\-||
 |                        |       ||
 |                        |       ||
 |                        |       ||
B|------------------------|-------||
G|------------------------|-------||
D|-3-5b---3-5-------------|-3h5\--||
A|-3-5b---3-5-------------|-------||
D|-3-5b---3-5-x-x-x-x-x-x-|-------||


This was a hard song to figure out. I don't know why. It's really fun to play, 
though.

Enjoy.

Comments about this tab

3rd Bassman - 2006-06-12

sweet a guitar and bass tab together... lol good job!


Add a comment/correction

Complimentary Christian Ringtones
Dadamobile and CGR have teamed up to bring your favorite Christian artists right to your phone. Sign up today and get 10 complementary ringtones!
Tab Country
Did you know CGR has a sister site w/ country guitar tabs? Well we do! Its called Tab Country. It has a great archive with a lot of country tabs.
Rockin Tabs
Are you looking for a site that has rock guitar tabs? Then Rockintabs.com is the place for you. It is a budding site with many rock guitar tabs. Submit your tab today.
Tab Gallery
Tab Gallery has a compilation of christian, rock, and country tabs all in one place. Come visit us.