Guitar Tabs
song title    band name

Join Us Today!

Don't strum alone...
be a part of the largest online Christian music community. Browse thousands of guitar tabs and chat w/ musicians like yourself.


It's Free!

This tab has been rated a 5.00 out of 5 for accuracy. (3 votes)Sorry, but you must be logged in to rate this tab.
Click here to log-in, or you can click here to register.
(Registration is free)

All songs owned by corresponding publishing company. If you make copies of any song on this website, be sure to report your usage to CCLI.
Submitted by: Cheese_Monkey

Song: Anything
Artist: Mae
CD: The everglow
Tabbed by: Cheese_Monkey

Hey everybody, i just got this CD for christmas, so i'm tabbing as much of it
out as i can for you all! here we go!

Intro:

Lead Guitar:

e------------13-----------------------13--13--
B-15------------------------------------------
G---12-14-15----12-14-15-15---------15--15--15 and repeat the whole thing
D-------------------------- x2 then-----------
A---------------------------------------------
D---------------------------------------------

Rhythem guitar:

D-1------------------------------5-5----8-8
A-1  hold that chord for a while-5-5----8-8 play that twice
D-1------------------------------5-5----8-8

Verse:

e--1-------1---------
B-------------------- repeat that as needed, play arround with it a little
G----3-2-3---3-2-3-3- it's mainly bass through the verse anyway.

Pre chorus:

D--3--8
A--3--8
D--3--8

Chorus:

Rhythm guitar:

D--1---------5-5--8-8
A--1---------5-5--8-8
D--1---------5-5--8-8

bridge:

Rhythm guitar:

D--6---8---11---6
A--6---8---11---6
D--6---8---11---6

Lead Guitar:

e------------------------------------------------------------------------
B----------16-15-----------------------16-15----------16-----------------
G--12h13--------15--12h13-12h13 12h15-------15--12h13---15-13-12h13-12h13

e-------------------------------
B------16-----------------------
G--15-----15--13--12h13-12h13-15

Solo:

G--10-10-10--8-7-7--10-10-3--10-10-10-8-7-7---------
D--x--x--x---x-x-x--x--x--x--x--x--x--x-x-x-5-5--8-8
A--8--8--8---6-5-5--8--8--1--8--8--8--6-5-5-5-5--8-8
D-------------------------------------------5-5--8-8

G--10-10-10-8-7-7-10-10-3-3-5-7-5-3----
D--x--x--x--x-x-x-x--x--x-x-x-x-x-x-7-5
A--8--8--8--6-5-5-8--8--1-1-3-5-3-1-7-5
D-----------------------------------7-5

then do the chorus a couple times, the intro again and we're done! woo hoo!

well i hope you enjoyed the tab, i hope it was helpful! god bless, dont forget
to rate me and leave a comment!

Tim (Cheese_Monkey)

Comments about this tab

Cheese_Monkey - 2006-03-23

hey it's me again. looking at some other tabs on some other sites had made me realize that the guitars are all tuned in flat, but my way still works alright i suppose. just thought i'd add that for anyone who cares :P


Add a comment/correction

Complimentary Christian Ringtones
Dadamobile and CGR have teamed up to bring your favorite Christian artists right to your phone. Sign up today and get 10 complementary ringtones!
Tab Country
Did you know CGR has a sister site w/ country guitar tabs? Well we do! Its called Tab Country. It has a great archive with a lot of country tabs.
Rockin Tabs
Are you looking for a site that has rock guitar tabs? Then Rockintabs.com is the place for you. It is a budding site with many rock guitar tabs. Submit your tab today.
Tab Gallery
Tab Gallery has a compilation of christian, rock, and country tabs all in one place. Come visit us.