Guitar Tabs
song title    band name

Join Us Today!

Don't strum alone...
be a part of the largest online Christian music community. Browse thousands of guitar tabs and chat w/ musicians like yourself.


It's Free!

This tab has been rated a 4.38 out of 5 for accuracy. (8 votes)Sorry, but you must be logged in to rate this tab.
Click here to log-in, or you can click here to register.
(Registration is free)

All songs owned by corresponding publishing company. If you make copies of any song on this website, be sure to report your usage to CCLI.
Submitted by: iamnotfamous

Key: C Relative to Capo

  (VERSES 1&2)
       C                             Am7
V1 
V2
E----------------------------------------------------------------------------|
B------1-----------------------------1---------------------------------------|
G--0---------0---0-------0------(0)----------0--0-------0--------------------|
D-----------------32-2---------------------------32-2------------------------|
A----------------------------------------------------------------------------|
E----------------------------------------------------------------------------|

                          F2
V1 
V2
E----------------------------------------------------------------------------|
B----------------------------------------------------------------------------|
G-------------------------0-----------------------------0--------------------|
D--2---3---2----3-----2---------(2)--3---2----3-----2------------------------|
A----------------------------------------------------------------------------|
E----------------------------------------------------------------------------|
       
       C2                              Am7
V1
V2
E----------------------------------------------------------------------------|
B------1-------------------------------1-------------------------------------|
G--0---------0-----0--------0-----(0)--------0-----0---------0---------------|
D------------------------2-------------------------------2-------------------|
A----------------------------------------------------------------------------|
E----------------------------------------------------------------------------|

                         F2
V1 
V2
E----------------------------------------------------------------------------|
B----------------------------------------------------------------------------|
G------------------------0----------------------------0----------------------|
D--2---3---2----3----2--------------3----2----3---2--------------------------|
A----------------------------------------------------------------------------|
E----------------------------------------------------------------------------|

 (CHORUS)
      C                          G/B      Am7                            G/B 

E----------------------------------------------------------------------------|
B-----1--------3---1----5----3----3---1---1--------3---1--------53--1----3---|
G-0----20---0------------------------------20---0-----------0----------------|
D----------------------------------------------------------------------------|
A----------------------------------------------------------------------------|
E----------------------------------------------------------------------------|
 
 (CHORUS continued)
      Fmaj7      G            C2 Csus C2

  
E---------------------------------------|
B-1---1----------3------------1---------|
G------20----0---------0--0-------------|
D---------------------------------------|
A---------------------------------------|
E---------------------------------------|

  (BRIDGE)
  C2                   G/B  Am7                    G/B 
  
E-------------------------------------------------------|
B-5----6-531--3---1---------5---6---531-3---1-----------|
G-------------------------------------------------------|
D-------------------------------------------------------|
A-------------------------------------------------------|
E-------------------------------------------------------|

  (BRIDGE continued)
     Fmaj7               G            C2  Csus  C2

E-------------------------------------------------------|
B-1--5-----6----5--------3------------1-----------------|
G--------------------0---------0--0---------------------|
D-------------------------------------------------------|
A-------------------------------------------------------|
E-------------------------------------------------------|


  

Comments about this tab

iamnotfamous - 2005-12-21

Capo 0 Key of C="How Great is Our God" Passion 05 CD
Capo 1 Key of C="Arriving" Chris Tomlin CD in Original Key of C#/Db

For those who want to play this tab or song in Key of G, play it in
Capo 7 Key of C=Key of G

TAB relates to song notes only.

(VERSES 1&2)
C Am7
V1
V2
E----------------------------------------------------------------------------|
B------1-----------------------------1---------------------------------------|
G--0---------0---0--------0~-----(0)----------0--0-----------0~--------------|
D-----------------3(h)2-2---------------------------3(h)2-2------------------|
A----------------------------------------------------------------------------|
E----------------------------------------------------------------------------|

F2
V1
V2
E----------------------------------------------------------------------------|
B----------------------------------------------------------------------------|
G-------------------------0~----------------------------0~-------------------|
D--2---3---2----3-----2---------(2)--3---2----3-----2------------------------|
A----------------------------------------------------------------------------|
E----------------------------------------------------------------------------|

C Am7
V1
V2
E----------------------------------------------------------------------------|
B------1-------------------------------1-------------------------------------|
G--0---------0-----0--------0~----(0)--------0-----0---------0~--------------|
D------------------------2-------------------------------2-------------------|
A----------------------------------------------------------------------------|
E----------------------------------------------------------------------------|

F2
V1
V2
E----------------------------------------------------------------------------|
B----------------------------------------------------------------------------|
G------------------------0~---------------------------0~---------------------|
D--2---3---2----3----2--------------3----2----3---2--------------------------|
A----------------------------------------------------------------------------|
E----------------------------------------------------------------------------|

(CHORUS)
C G/B Am7 G/B

E----------------------------------------------------------------------------|
B-----1~-------3---1~---5----3----3---1---1~-------3---1~-------5(h)3--1--3--|
G-0---------0-----------------------------------0-----------0----------------|
D----------------------------------------------------------------------------|
A----------------------------------------------------------------------------|
E----------------------------------------------------------------------------|

(CHORUS continued)
Fmaj7 G C Csus C

E---------------------------------------|
B-1---1~---------3~-----------1~--------|
G------------0---------0--0-------------|
D---------------------------------------|
A---------------------------------------|
E---------------------------------------|

(BRIDGE)
C G/B Am7 G/B

E-------------------------------------------------------|
B-5----6-531--3---1~--------5---6---531-3---1~----------|
G-------------------------------------------------------|
D-------------------------------------------------------|
A-------------------------------------------------------|
E-------------------------------------------------------|

(BRIDGE continued)
Fmaj7 G C2 Csus C2

E-------------------------------------------------------|
B-1--5-----6----5~-------3~-----------1~----------------|
G--------------------0---------0--0---------------------|
D-------------------------------------------------------|
A-------------------------------------------------------|
E-------------------------------------------------------|

[Alternate Chorus&Bridge for easier play based on chord]

(CHORUS)
C G/B Am7 G/B

E-----------------------0---------------------------------------0------------|
B-----1~-------3---1~--------3----3---1---1~-------3---1~--------------1--3--|
G-0---------0-----------------------------------0-----------0----------------|
D----------------------------------------------------------------------------|
A----------------------------------------------------------------------------|
E----------------------------------------------------------------------------|

(CHORUS continued)
Fmaj7 G C Csus C

E---------------------------------------|
B-1---1~---------3~-----------1~--------|
G------------0---------0--0-------------|
D---------------------------------------|
A---------------------------------------|
E---------------------------------------|

(BRIDGE)
C G/B Am7 G/B

E-0----1-0------------------0---1---0-------------------|
B---------3(h)1--3---1~-----------------3(h)1-3---1~----|
G-------------------------------------------------------|
D-------------------------------------------------------|
A-------------------------------------------------------|
E-------------------------------------------------------|

(BRIDGE continued)
Fmaj7 G C Csus C

E----0-----1----0~--------------------------------------|
B-1----------------------3~-----------1~----------------|
G--------------------0---------0--0---------------------|
D-------------------------------------------------------|
A-------------------------------------------------------|
E-------------------------------------------------------|

~ =let it ring out
h =hammer on


iamnotfamous - 2005-12-21

Capo 0 Key of C="How Great is Our God" Passion 05 CD
Capo 1 Key of C="Arriving" Chris Tomlin CD in Original Key of C#/Db

For those of you who want to play this tab or song in Key of G, play it in
Capo 7 Key of C=Key of G

TAB relates to song notes only.

(VERSES 1&2)
C Am7
V1
V2
E-----------------------------------------------------------------|
B------1-----------------------------1----------------------------|
G--0---------0---0--------0~-----(0)----------0--0-----------0~---|
D-----------------3(h)2-2---------------------------3(h)2-2-------|
A-----------------------------------------------------------------|
E-----------------------------------------------------------------|

F2
V1
V2
E-----------------------------------------------------------------|
B-----------------------------------------------------------------|
G-------------------------0~----------------------------0~--------|
D--2---3---2----3-----2---------(2)--3---2----3-----2-------------|
A-----------------------------------------------------------------|
E-----------------------------------------------------------------|

C Am7
V1
V2
E-----------------------------------------------------------------|
B------1-------------------------------1--------------------------|
G--0---------0-----0--------0~----(0)--------0-----0---------0~---|
D------------------------2-------------------------------2--------|
A-----------------------------------------------------------------|
E-----------------------------------------------------------------|

F2
V1
V2
E-----------------------------------------------------------------|
B-----------------------------------------------------------------|
G------------------------0~---------------------------0~----------|
D--2---3---2----3----2--------------3----2----3---2---------------|
A-----------------------------------------------------------------|
E-----------------------------------------------------------------|

(CHORUS)
C G/B Am7 G/B

E----------------------------------------------------------|
B-----1~-------3---1~---5----3----3---1---1~-------3---1~--|
G-0---------0-----------------------------------0----------|
D----------------------------------------------------------|
A----------------------------------------------------------|
E----------------------------------------------------------|

(CHORUS continued)
Fmaj7 G C Csus C

E----------------------------------------------------------|
B----5(h)3--1--3---1---1~---------3~-----------1~----------|
G-0----------------------------0---------0--0--------------|
D----------------------------------------------------------|
A----------------------------------------------------------|
E----------------------------------------------------------|

(BRIDGE)
C G/B Am7 G/B

E-----------------------------------------------------|
B-5----6-531--3---1~--------5---6---531-3---1~--------|
G-----------------------------------------------------|
D-----------------------------------------------------|
A-----------------------------------------------------|
E-----------------------------------------------------|

(BRIDGE continued)
Fmaj7 G C2 Csus C2

E-----------------------------------------------------|
B-1--5-----6----5~-------3~-----------1~--------------|
G--------------------0---------0--0-------------------|
D-----------------------------------------------------|
A-----------------------------------------------------|
E-----------------------------------------------------|

[Alternate Chorus&Bridge for easier play based on chord]

(CHORUS)
C G/B Am7 G/B

E-----------------------0-----------------------------------|
B-----1~-------3---1~--------3----3---1---1~-------3---1~---|
G-0---------0-----------------------------------0-----------|
D-----------------------------------------------------------|
A-----------------------------------------------------------|
E-----------------------------------------------------------|

(CHORUS continued)
Fmaj7 G C Csus C

E----0------------------------------------------------------|
B-----------1--3---1---1~---------3~-----------1~-----------|
G0----------------------------0---------0--0----------------|
D-----------------------------------------------------------|
A-----------------------------------------------------------|
E-----------------------------------------------------------|

(BRIDGE)
C G/B Am7 G/B

E-0----1-0------------------0---1---0-----------------|
B---------3(h)1--3---1~-----------------3(h)1-3---1~--|
G-----------------------------------------------------|
D-----------------------------------------------------|
A-----------------------------------------------------|
E-----------------------------------------------------|

(BRIDGE continued)
Fmaj7 G C Csus C

E----0-----1----0~------------------------------------|
B-1----------------------3~-----------1~--------------|
G--------------------0---------0--0-------------------|
D-----------------------------------------------------|
A-----------------------------------------------------|
E-----------------------------------------------------|

~ =let it ring out
h =hammer on


edgeguitarist05 - 2006-01-06

No I pur the Capo on 8 and played the song in G, in the Key of D and it sounded correct. Also, David their lead gutarist wrote it as the key of C# and played it in D. 3 different keys.


edgeguitarist05 - 2006-01-06

I meant Daniel, sorry.


iamnotfamous - 2006-01-07

yeah, no problem. Yes, the original key is Db. The Db may be a high singing range for some, that's why I said for those who want to play or sing in the KEY OF G, they must Capo 7 with this tab. Hope this helps. Here's the Capo theory:

NO CAPO KEY of C=KEY of C
CAPO 1 KEY of C=KEY of C# or Db
CAPO 2 KEY of C=KEY of D
CAPO 3 KEY of C=KEY of D# or Eb
CAPO 4 KEY of C=KEY of E
CAPO 5 KEY of C=KEY of F
CAPO 6 KEY of C=KEY of F# or Gb
CAPO 7 KEY of C=KEY of G
CAPO 8 KEY of C=KEY of G# or Ab
CAPO 9 KEY of C=KEY of A
CAPO 10 KEY of C=KEY of A# or Bb
CAPO 11 KEY of C=KEY of B
CAPO 12 KEY of C=KEY of C (1 OCTAVE HIGHER than original C)


QuakerGrapes - 2006-01-11

Hey thanks guys this one helped me out a lot. I just got to figure out how to read tabs better and it will be great. ha ha Thanks I love this song

~Grapes


Guitar4Christ21 - 2006-07-19

Errr...I thought the original Key was in C#? because the way I play it is:

start off with C# Bbm C# F# C# Bbm C# F#

Chorus C# Bbm F# G# C# and so on and so forth

Note: You can also use Capo 1, and play everything a half step down

Capo 1
C# = C
Bbm = Am
F# = F
G# = G

either way it works for me, but I tried it in Db...and it didnt sound right, and I have my guitar at standard 440, so I dunno! Good Song though, God Bless!


BrianAltenhofel - 2007-04-05

C# = Db...


Add a comment/correction

Complimentary Christian Ringtones
Dadamobile and CGR have teamed up to bring your favorite Christian artists right to your phone. Sign up today and get 10 complementary ringtones!
Tab Country
Did you know CGR has a sister site w/ country guitar tabs? Well we do! Its called Tab Country. It has a great archive with a lot of country tabs.
Rockin Tabs
Are you looking for a site that has rock guitar tabs? Then Rockintabs.com is the place for you. It is a budding site with many rock guitar tabs. Submit your tab today.
Tab Gallery
Tab Gallery has a compilation of christian, rock, and country tabs all in one place. Come visit us.