Guitar Tabs
song title    band name

Join Us Today!

Don't strum alone...
be a part of the largest online Christian music community. Browse thousands of guitar tabs and chat w/ musicians like yourself.


It's Free!

This tab has been rated a 2.00 out of 5 for accuracy. (3 votes)Sorry, but you must be logged in to rate this tab.
Click here to log-in, or you can click here to register.
(Registration is free)

All songs owned by corresponding publishing company. If you make copies of any song on this website, be sure to report your usage to CCLI.
Submitted by: fenderbender1

INTRO
-------------------------------------
-------------------------------------
---------------4--------------------- x8
-----------5-5---5--0-0-4-5----------
-2-2--4-5-------------------0-0-5-4--


Chorus
---------------------------------
---------------------------------
---------------------------------
-------7-7---------9-9----------- x8
-4-4---5-5---7-7---7-7-----------
-2-2---------5-5-----------------

Awesome riff                                     
-55-44-55----55-44-55---55-44-55----55-44---9-10-9
----------32---------32----------32---------------
--------------------------------------------------
--------------------------------------------------
--------------------------------------------------
--------------------------------------------------

Comments about this tab

cryistalrider - 2005-10-31

in tro

--------------1--------------------
--------1-2-2---2-----1-2----------
------2-----------2-2---------2-1--
---33---------------------2-2------

ok well i dont know the rest( i havent even tried to learn it)


Jeimz - 2006-02-08

g----------1-----------------------------------------
d-------2-2--2---1-2---------------------------------
a----1-2------2-2------2-1---------------------------
e-4-4---------------2-2------------------------------

Here's the right way of playing it...

keep up the good work

God bless!!!


timmeh123 - 2006-11-10

i think the guitar bit is this unless youve tabbed it in a diffrent key

E|--------------------------| |--------------11^--|
B|--12-12-11-11-12-12-------| |--12-12-11-11------|
G|--------------------11-9--|(x3) |-------------------|


timmeh123 - 2007-02-06

Acually, Correction

E|--------------------------| |--------------11^-11-9-----|
B|--12-12-11-11-12-12-------| |--12-12-11-11----------12--|
G|--------------------11-9--|(x3) |---------------------------|


sk8erdude198916 - 2007-05-12

Ok hold up every one, its kinga funny every one that added comments are more wrong then the person who posted the tab, they just missed it by like 4 notes.

there post was this
-------------------------------------
-------------------------------------
---------------4--------------------- x8
-----------5-5---5--0-0-4-5----------
-2-2--4-5-------------------0-0-5-4--

it should be this
-------------------------------------
-------------------------------------
---------------4--------------------- x8
-----------5-5---5------4-5-7-7------
-2-2--4-5-----------5-5---------5-4--

the way I play it is this and his is in a differnt key then on the cd, but it is right becaus I have been playing it at my church and other churchs for the past 3 or 4 years I belive, anyway I say its right becaus that what all the muscians showed me when we learned it a while back and it sounds like the cd so anyway peace, and every one good try all was prrett close, other then the first comment, no offence.

-------------------------------------
-------------------------------------
---------------6--------------------- x8
-----------7-7---7------6-7--9-9-----
-4-4--6-7-----------7-7---------6-7--


guitarherobru - 2007-08-15

The way that we always play it at our church (in the key of B) is this;

D---------------1----------------
A-------2---2-2---2-----2-2-4----
E---4-4---4---------0-0-------2-1 (repeat)

That's what we do, try it and let me know what you think.


guitarherobru - 2007-08-15

also for the solo, i tried tabbing by ear, so it may be wrong, but it is similar to what other people had i think.

E----7-7-6-6-7-7-----7-7-6-6-7-7-----7-7-6-6-7-7-----7-7-6-6-12^
A----------------7-5-------------5-4-------------7-5------------


Add a comment/correction

Complimentary Christian Ringtones
Dadamobile and CGR have teamed up to bring your favorite Christian artists right to your phone. Sign up today and get 10 complementary ringtones!
Tab Country
Did you know CGR has a sister site w/ country guitar tabs? Well we do! Its called Tab Country. It has a great archive with a lot of country tabs.
Rockin Tabs
Are you looking for a site that has rock guitar tabs? Then Rockintabs.com is the place for you. It is a budding site with many rock guitar tabs. Submit your tab today.
Tab Gallery
Tab Gallery has a compilation of christian, rock, and country tabs all in one place. Come visit us.