Guitar Tabs
song title    band name

Join Us Today!

Don't strum alone...
be a part of the largest online Christian music community. Browse thousands of guitar tabs and chat w/ musicians like yourself.


It's Free!

This tab has been rated a 2.33 out of 5 for accuracy. (3 votes)Sorry, but you must be logged in to rate this tab.
Click here to log-in, or you can click here to register.
(Registration is free)

All songs owned by corresponding publishing company. If you make copies of any song on this website, be sure to report your usage to CCLI.
Submitted by: mattmaclean

Pretty much the same as element1's tab..  A few minor changes. 
Was watching him play it the other day when they were in Calgary :)


Intro
e----------------------------
b----6-----5-----3------5-6--
g-6/7-7---5---2/3--3---5-----
d----------------------------
a----------------------------
d----------------------------


Pre-Chours
e-------------------------|-------------------------
b-------------------------|-------------------------
g-------------------------|-------------------------
d-000--0-0--000--0--7-5-3-|-0--0-0--000--5p0--3-5-0-
a-000--0-0--000--0--7-5-3-|-0--0-0--000--5p0--3-5-0-
d-000--0-0--000--0--7-5-0-|-0--0-0--000--0----3-5-0-


Chours
e------------------|-------------------|-----------------|---------------------|
b------------------|-------------------|-----------------|---------------------|
g------------------|-------5555--------|-----------------|--------5555---------|
d-88--33--55550000-|88--33-5555-07--05-|88--33--55550000-|-88--33-5555-7-3-5-0-|
a-88--33--55550000-|88--33-3333-07--05-|88--33--55550000-|-88--33-3333-7-3-5-0-|
d-88--33--55550000-|88--33------07--05-|88--33--55550000-|-88--33------7-3-5-0-|
                 


Bridge
e-----------------------0h1-|
b---3-----3-----3----3------|
g--2----2----2----2---------|
d-0-------------------------|
a-----3----2----1-----------|
d---------------------------|


Comments about this tab

sk8r7 - 2005-10-18

ok bro i notice many many similarities with my tab in fact it's the exact same except for one chord...what's the point, and the slides in the beginning i added a comment to my own about the slides b4 the notes. don't copy another's work and call it your own!


ice_wiz - 2006-01-05

Ya, even if u didn't copy it why add the same tab??


Dani_Boy - 2006-03-23

It's got enough changes I think, and it includes the bridge section. However this one's off too. I don't mean to be rude. Nice try anyway.


Dani_Boy - 2006-03-26

Did you ever hear this chord in the song?
D|--3--|
A|--3--|
D|--0--|

It sounds terrible! did you mean this perhaps?
D|--3--|
A|--3--|
D|--3--|

I think the bridge goes like this:
G|--77----------77---7---------------------7----7-----------|
D|--xx0---0-0---xx0--x-0-7--3--5-0---0-0---x-0--x-0-3--5--0-|
A|--550---0-0---550--5-0-7--3--5-0---0-0---5-0--5-0-3--5--0-|
D|----0---0-0-----0----0-7--3--5-0---0-0-----0----0-3--5--0-|


Dani_Boy - 2006-04-04

sorry, I really don't mean to be nagging about your tab. It kinda looks that way when I read my previous comments. So I really don't mean to be rude, it's just kinda off at some points.


guitar_freak_15 - 2006-09-03

the intro goes more like this anyway,

e-----------------------------------
b----6--------5------3--------5s6---
g--7---7-----5-----3---3----5-------
d-----------------------------------
a-----------------------------------
d-e---------------------------------

then repeat it a few time or what ever, and by the way its not cool do copy other peoples stuff.

God Bless

Guitar_freak_15


Add a comment/correction

Complimentary Christian Ringtones
Dadamobile and CGR have teamed up to bring your favorite Christian artists right to your phone. Sign up today and get 10 complementary ringtones!
Tab Country
Did you know CGR has a sister site w/ country guitar tabs? Well we do! Its called Tab Country. It has a great archive with a lot of country tabs.
Rockin Tabs
Are you looking for a site that has rock guitar tabs? Then Rockintabs.com is the place for you. It is a budding site with many rock guitar tabs. Submit your tab today.
Tab Gallery
Tab Gallery has a compilation of christian, rock, and country tabs all in one place. Come visit us.