Guitar Tabs
song title    band name

Join Us Today!

Don't strum alone...
be a part of the largest online Christian music community. Browse thousands of guitar tabs and chat w/ musicians like yourself.


It's Free!

This tab has been rated a 4.54 out of 5 for accuracy. (24 votes)Sorry, but you must be logged in to rate this tab.
Click here to log-in, or you can click here to register.
(Registration is free)

All songs owned by corresponding publishing company. If you make copies of any song on this website, be sure to report your usage to CCLI.
Submitted by: element1

Everyone is making this such a long and drawn out and down right difficult song when the reality is... IT'S SIMPLE!!!!
Thousand Foot Krutch- Absolute
tuning:Drop D
intro/verse:
e--------------------|
b--6----5---3-1---5-6|
g-7-7--5---3-----5---|
d--------------------|
a--------------------|
d--------------------|
pre-chorus:
e--------------------|--------------------|
b--------------------|--------------------|
g-------7-7777-------|-------7-7777-------|
d-0-00-07-7777-7-3-5-|-0-00-07-7777-3-5-0-|
a-0-00-05-5555-7-3-5-|-0-00-05-5555-3-5-0-|
d-0-00-0-------7-3-5-|-0-00-0-------3-5-0-|
chorus:
e---------------------|--------------------|---------------------|
b---------------------|--------------------|---------------------|
g---------------------|--------5555--7-----|--------5555---------|
d-88--33-555500000000-|-88--33-5555-0h70h7-|-88--33-5555-7-3-5-0-|
a-88--33-555500000000-|-88--33-3333-0h50h7-|-88--33-3333-7-3-5-0-|
d-88--33-555500000000-|-88--33------0--0h7-|-88--33------7-3-5-0-|
bridge:
e-----------------------0h1-|
b---3-----3-----3----3------|
g--2----2----2----2---------|
d-0-------------------------|
a-----3----2----1-----------|
d---------------------------|

Comments about this tab

krutchfan66 - 2005-08-30

awesome tab doyd:)


krutchfan66 - 2005-09-01

u no wuts sad is that this is waaaaaaaaaaay better than my tab...lol


element1 - 2005-09-01

ok one correction right between the first chorus and second verse, play the bridge one time through and on the pre-chorus it's

e-------------------|-------------------|
b-------------------|-------------------|
g------97-7777------|------97-7777------|
d-0-00-97-7777-7-3-5|-0-00-97-7777-3-5-0|
a-0-00-75-5555-7-3-5|-0-00-75-5555-3-5-0|
d-0-00---------7-3-5|-0-00---------3-5-0|

try that and let me know what you think!!!


TFK_TFK - 2005-09-03

THFK is coming to calgary!!! :):):)


thecrazeofsong - 2005-09-05

amazing tab man. TFK is coming to elgin!!!


TFK-FrEak - 2005-09-05

hey, just one little correction in the pre-chorus

e------------------|
b------------------|
g------7--77-------|
d-0-00-70-77-7-5-3-|
a-0-00-50-55-7-5-3-|
d-0-00--0----7-5-3-|

just try that and see if it works. It sounds right


keller - 2005-09-06

I think tfk freak is right. just one little thing. I'm not totally sure.

E------------------
B------------------
G------77--77------
D-0-00---0-777-3-5-
A-0-00---0-557-3-5-
E-0-00---0---7-3-5-

No biggy, I'm just bored. :)


element1 - 2005-09-06

in that pre-chorus ya'll are playin that note too low, listen to it really close it's ALOT higher! sk8r7@hotmail.com


TFK-FrEak - 2005-09-08

erm.. not trying to bum you out or anything but i actually played my version along with the song and it sounds right. Just try it element1

Anywayzz
God bless...


Cheese_Monkey - 2005-09-08

Congratz man, this tab is amazing!


guitarman_14 - 2005-09-09

Hey, tfk-freak is definitely right on the pre-chorus, but other than that, awesome tab, man.


TFK-FrEak - 2005-09-10

hey me again.. For those who want it perfect.. there's just one tinytiny mistake in the chorus...

e-----------------|
b-----------------|
g-----------------|
d-88-033-55550000-|
a-88-033-55550000-|
d-88-033-55550000-|


Dare - 2005-09-12

TFK did come to Calgary and they were awesome.Everyone should go see them.This tab is really good too.


element1 - 2005-09-14

hey guys thanx for the corrections, my band just played a gig last night and... AWESOME! everyone was goin' wild!!!! TFK's COMIN' TO TEXAS!!!!!!!!!!!!!!!!!!!!!!!


worship_him91 - 2005-10-21

awsoem tab dude. keep it comin!!!!



Jesus should not only be confesed with our mouths, but with our actions as well.


guitarfreak15 - 2005-11-01

nice tab dude but u messed up on the into:
E-----------------------------
B--6----5---3--1--5-6---------
G-7-7--5---3-3----------------
D-----------------------------
A-----------------------------
D-----------------------------
it should look lik that but other wise awesome job i congradulate u


sk8r7 - 2005-11-03

hey guys element1 here just 4got my password so had to get a new account! ok, whoever added the "correction" to my intro... i'm not off listen to it a little closer. notes are off bad! you can play it your way but it's just a bit off, it may sound right on a little like 10-50 watt amp, but play on my good ol' marshall stacker and yeah big difference! l8r guys, PEACE OUT!!!!


jesuslova - 2005-11-18

great job element1. but i agree about the prechorus with the other people

peace
choly
<><


ice_wiz - 2005-11-26

intro is off, but the rest is good


Matth_3000 - 2005-12-18

I think the chorus is a bit different, more like this I think
e------------------|--------------------------|------------------|
b------------------|--------------------------|------------------|
g------------------|--------------------------|------------------|
d-88--833-55550000-|-88--833-10101010-1210-87-|-88--833-55550000-|
a-88--833-55550000-|-88--833-10101010-1210-87-|-88--833-55550000-|
d-88--833-55550000-|-88--833-10101010-1210-87-|-88--833-55550000-|

e--------------------|------
b--------------------|------
g--------------------|------
d-88-833-10101010-723|-0----
a-88-833-10101010-723|-0----
d-88-833-10101010-723|-0----


mattyrich73 - 2005-12-31

i was listening to the song and going along with what was previously said about the chorus, there is actually a not being missed, i have listened to the song about 25x now and realize it goes(i know, kinda pathetic it took me that long to figure it out

---------------------|----------5555--7-----|---------------------|----------5555---------|
-88--833--355550000--|-88--833-35555-0h70h7-|-88--833--355550000--|-88--833-35555-7-3-5-0-|
-88--833--355550000--|-88--833-33333-0h50h7-|-88--833--355550000--|-88--833-33333-7-3-5-0-|
-88--833--355550000--|-88--833-3-----0--0h7-|-88--833--355550000--|-88--833-3-----7-3-5-0-|


mattyrich73 - 2005-12-31

i meant *note* not a *not* being missed, sorry, anyways, peace be with and keep livin' it for HIM


I Rock 4 Christ - 2006-01-12

How the heck do you submit a tab!!! i have tried about 3 times and it never works!!!


krazykrutchfan4 - 2006-01-16

hey thanks for not making this tab all long and hard and drawen out and confusing etc.

krazykrutchfan4


akaukal - 2006-02-13

finally someone got it right. but i tryed playing it in standard tuning and i found it more difficult but the sound was much better. then again im playing through a marshall 200 watt on full.... anyway good job!


Dani_Boy - 2006-03-23

You've got some mistakes, but this tab is one of the better on the site so far.
Everyone's missing out the second guitar though, I might tab it down. Good job anyhow.


Dani_Boy - 2006-03-24

I'm almost done now with my version of this song. I'm including both guitars,
every little tone of it. I've been working for about 6 hours with it so far.
It'll take me a some more time, and it will take a lot of time for the song
to appear on the site, (The system's kinda slow) but then I hope we'll have
a perfect verion of Absolute. God Bless, everyone


Dani_Boy - 2006-03-24

I gotta learn how this correction thing works, it keeps chopping
off my corrections.


Add a comment/correction

Complimentary Christian Ringtones
Dadamobile and CGR have teamed up to bring your favorite Christian artists right to your phone. Sign up today and get 10 complementary ringtones!
Tab Country
Did you know CGR has a sister site w/ country guitar tabs? Well we do! Its called Tab Country. It has a great archive with a lot of country tabs.
Rockin Tabs
Are you looking for a site that has rock guitar tabs? Then Rockintabs.com is the place for you. It is a budding site with many rock guitar tabs. Submit your tab today.
Tab Gallery
Tab Gallery has a compilation of christian, rock, and country tabs all in one place. Come visit us.