Guitar Tabs
song title    band name

Join Us Today!

Don't strum alone...
be a part of the largest online Christian music community. Browse thousands of guitar tabs and chat w/ musicians like yourself.


It's Free!

This tab has been rated a 3.29 out of 5 for accuracy. (7 votes)Sorry, but you must be logged in to rate this tab.
Click here to log-in, or you can click here to register.
(Registration is free)

All songs owned by corresponding publishing company. If you make copies of any song on this website, be sure to report your usage to CCLI.
Submitted by: gsus_freak7

  This is the tab that Daniel Carson, Chris' electric guitarist, 
plays during the song Holy is the Lord.  To be completley honest, I got this 
 from Chris tomlins web site, where Daniel posted a lot  of tabs to the CD 
 "Arriving".  Check it out some time!
   

   Verse 1           Capo 4  (numbers are according to the capo)
    We bow down...
 ---------------------------------------------------
 --------------3---------3----3--------3------------
 ------0^4--------4---4^5----4-----0^2-----(repeat)

  " and together we sing"
 ----------------------0----------------------------
 ------------------------2-3-----5------------------
 --------------------2-------2^5------repeats-------
 --------7-5-4-5-2----------------------------------

     Chorus
 ---------------------------------------------------
 ---------------------------------------------------
 ---------------------------------------------------
-7-5-7---5-7-5-7--7-5-7 5-7-5-7/9--(repeats)--------


   Outro
 e--------------------------------------------------
 B--888--12-12---8-8-8---8-12-12-10-10--7-7-7-------
 G--------------------------------------------------

 e--------------------------------------------------
 B--8-8-8--12-12--8-8-8---8-15-15-12-12--10-10------
 G--------------------------------------------------

  repeats until the song is over.
  Remember, I take NO credit for this song.

   Thx,
        gsus_freak7



Comments about this tab

Calmedtron - 2005-11-06

If you want the intro part on mandolin, it is
e-----3--5--7--5--3-----3--5--7--5--3--5-----3--5--7--5--3--
B--3-----------------3--------------------3-----------------

Good Job though...uhh gsus_freak7


Shred-n-Ready - 2006-03-12

I would have to say that listening to the mandolin part in the intro it is:

a-----1^3--5--7--5--3---------1^3--5--7--5--3--5--
d--3-----------------------3----------------------


Thanks for allowing me to contribute.
Shred-n-Ready


Shred-n-Ready - 2006-03-12

Oops, after I hit submit I realized my previous addition was totally incorrect.

Sorry about that. No way to delete it huh?

Anyway - this should sound better:

a-----1^3--5--3--1---------1^3--5--3--5---------1^3--5--3--1
d--3--------------------3--------------------3--------------

Thanks
SnR


Add a comment/correction

Complimentary Christian Ringtones
Dadamobile and CGR have teamed up to bring your favorite Christian artists right to your phone. Sign up today and get 10 complementary ringtones!
Tab Country
Did you know CGR has a sister site w/ country guitar tabs? Well we do! Its called Tab Country. It has a great archive with a lot of country tabs.
Rockin Tabs
Are you looking for a site that has rock guitar tabs? Then Rockintabs.com is the place for you. It is a budding site with many rock guitar tabs. Submit your tab today.
Tab Gallery
Tab Gallery has a compilation of christian, rock, and country tabs all in one place. Come visit us.