Guitar Tabs
song title    band name

Join Us Today!

Don't strum alone...
be a part of the largest online Christian music community. Browse thousands of guitar tabs and chat w/ musicians like yourself.


It's Free!

This tab has not yet been rated for accuracy.Sorry, but you must be logged in to rate this tab.
Click here to log-in, or you can click here to register.
(Registration is free)

All songs owned by corresponding publishing company. If you make copies of any song on this website, be sure to report your usage to CCLI.
Submitted by: Timberwolf

Song:Ammunition
CD:The Beautiful Letdown
Written by:Switchfoot
Tuning:EADGBE
Tabbed by:Nathan N.
Intro x5 Riff A
------------------------
------------------------
------------------------
9-9-999-8-88-13-1313----
x-x-xxx-x-xx--x--x-x----
7-7-777-6-66-11-1111----
Verse Riff B
-----------------------------------------------------
-----------------------------------------------------
14141414xx12121212xx11111111xx14141414xx1212xxxxxx---
-x-x-x-xxx-x-x-x-xxx-x-x-x-xxx-x-x-x-xxx-x-xxxxxxx---
12121212xx10101010xx-9-9-9-9xx12121212xx1010xxxxxx---
-----------------------------------------------------
Riff A x2
Riff B x1
Riff A x2
Chorus RF1 x3
-------------------------------------------
-------------------------------------------
-----------------------9-9-999-------------
9-11-11-9-11-7-77-7777-9-9-999-4-44-4444---
9-11-11-9-11-7-77-7777-7-7-777-4-44-4444---
7--9--9-7--9-5-55-5555---------2-22-2222---
RF2
---------------------------------------------------------------------------
---------------------------------------------------------------------------
---------------------------------------------------------------------------
77777777-99999999-1111111111111111-1414141414141414-77777777-99------------
77777777-99999999-1111111111111111-1414141414141414-77777777-99------------
55555555-77777777--9-9-9-9-9-9-9-9-1212121212121212-55555555-77(77777777)--
Riff A x2
Riff B x1
Riff A x2
Riff B x1
Riff A x2
RF1 x3
RF2 x1
Riff A x2
RF2 x1
Then RF3 x1 clean Gt2 in ()
00000000-----------------------00000000----------------------0000000000000000--
55555555-----------------------55555555----------------------5555555555555555--
44444444-----------------------44444444----------------------4444444444444444--
--------(9-9-999-8-88-13-1313)---------(9-9-999-8-88-13-1313)------------------
--------(x-x-xxx-x-xx--x--x-x)---------(x-x-xxx-x-xx--x--x-x)------------------
--------(7-7-777-7-77-11-1111)---------(7-7-777-7-77-11-1111)------------------
Cont.
--------------------------------------------
--------------------------------------------
--------------------------------------------
(9-9-999-8-88-13-1313-9-9-999-8-88-13-1313)-
(x-x-xxx-x-xx--x--x-x-x-x-xxx-x-xx--x--x-x)-
(7-7-777-7-77-11-1111-7-7-777-7-77-11-1111)-
RF1 x3
RF2 x1
Then GT1 play Riff A x1 and GT2 do this
---------------------------------------
------F1-------------------------------
---------------------------------------
---------------------------------------
---------------------------------------
0-0-000-0-00-0000-000000---------------
RF2 x1
F1 till end

Please Rate and leave comments. :)

Comments about this tab

idaman1111 - 2005-05-03

OK thats good but the song relly goes like this
Tuning Drop D (eg) A-----------0----------
E-----------7----------
these should sound the same
(tune ur top string down)

(optional begining then jump into intro)
e----------------------------------------
b----------------------------------------
g-----------------1-1-1--------- (2x)
D-2--2--222-1-1-1-----------------
A---------------------------------------
D---------------------------------------


e----------------------------------
b---------------------------------
g----------------3-3-3---
D-2-2-222--2-2-2-1-1-1---- (INTRO 4x)
A-2-2-222--1-1-1------------
D---------------------------------
Verse 1
e-------------------------------------
bthis is optional though
g--------------------------------------
D-------------------------------------
A--0--0--0--0-2----0--0--0--0-0
D------0---0------------0--0--- (repeat intro)

Chorus
e
b
g------------2--2----------2--1--
D--2-4-4-2-4--4--4-2--2-4--------4 (3x)
A----------------------------------------
D-----

Repeat 3 times then wen
it says Were Amunition,
WERE AMUNITION! its goes

e
b
g--------2-2-1------------5--5--4--2------------------5--4-4-2
D--2--4--------4----2--4--------------2--4--2-4-2-4-----------
A
D
(repeat intro)

Verse 2 is same as verse 1


At the Bridge dont play
nething until hes done talking
(eg) Look wat a mess weve
made of luv (then intro once)

Thats IT!!!!!!! OH AND ILL TRY 2
GIT MORE TABS UP!!!
143 144 lylvl cms
lol they didnt put mine on yet so i put it here


idaman1111 - 2005-05-03

oops i mean
drop d D---0-----
E---7-----

lvl cms


idaman1111 - 2005-05-03

nevr mind it keeps messin up u kno wat i mean


Add a comment/correction

Complimentary Christian Ringtones
Dadamobile and CGR have teamed up to bring your favorite Christian artists right to your phone. Sign up today and get 10 complementary ringtones!
Tab Country
Did you know CGR has a sister site w/ country guitar tabs? Well we do! Its called Tab Country. It has a great archive with a lot of country tabs.
Rockin Tabs
Are you looking for a site that has rock guitar tabs? Then Rockintabs.com is the place for you. It is a budding site with many rock guitar tabs. Submit your tab today.
Tab Gallery
Tab Gallery has a compilation of christian, rock, and country tabs all in one place. Come visit us.