Guitar Tabs
song title    band name

Join Us Today!

Don't strum alone...
be a part of the largest online Christian music community. Browse thousands of guitar tabs and chat w/ musicians like yourself.


It's Free!

This tab has been rated a 5.00 out of 5 for accuracy. (1 vote)Sorry, but you must be logged in to rate this tab.
Click here to log-in, or you can click here to register.
(Registration is free)

All songs owned by corresponding publishing company. If you make copies of any song on this website, be sure to report your usage to CCLI.
Submitted by: papersun87

Anonymous F
by Model Engine

Please note that this song is played tune a half step down . . . please also
note that the open D-string in most of these chords is essential to get that
Model Engine sound. Don't ignore it or mute it.

Into riff:

eb-----------------------------------|
Bb-----------------------------------|
Gb----------------------12/14/12/11--|
Db---0-0--0-0--0-0--0-0-0------------|
Ab--10-9-10-9-10-9-10-9-10/12/10/9---|
Eb-----------------------------------|  

5x (fifth time through, don't play the part with the slides)

Verse riff:

eb---0h2-----3------------0-------|
Bb-------3---3--------3---3-------|
Gb---------2-0----0h2-----2-------|
Db-----------0----------0-0-------|
Ab-----------2--------------------|
Eb-----------3--------------------|  

That little ditty repeats throughout the verses. Play 4x

Intro riff 4x, then this.

Chorus riff:

eb-------------------------3----|
Bb---5/7-7-7-7-5/7-8-7-5-3-3----|
Gb---5/7-7-7-7-5/7-7-7-5-2-0----|
Db---5/7-7-7-7-5/7-9-7-5-4-0----|
Ab-------------------------2----|
Eb-------------------------3----|  

Play that 4x, then wait while the bass does something nifty. Then play the
verse riff and then jump back into the chorus.

Play chorus riff 6x.

Bridge:
     
eb-------------------------------------|
Bb-------------1-1---------------------|
Gb---7-7--6-6--3-3--4-5-4--4/6--6------|
Db---7-7--7-7--3-3--5-5-5--5/7--7------|
Ab---5-5--7-7--1-1--5-5-5--5/7--7------|
Eb---5-5--5-5--1-1--3-3-3--3/5--5------|

Repeat 2x, then just the first half, like this:

eb------------------|
Bb-------------1-1--|
Gb---7-7--6-6--3-3--|
Db---7-7--7-7--3-3--|
Ab---5-5--7-7--1-1--|
Eb---5-5--5-5--1-1--|

Play the Verse riff once more, then the fun part:

Instrumental break (similar to intro):

eb---------------------------------------------------------------------|
Bb---------------------------------------------------------------------|
Gb-------------------------14-14-12-12-11-11-11------------------------|
Db---0-0--0-0--0-0--0-0-0--0---0--0--0--0--0--0---0-0--0-0--0-0--0-0---|
Ab--10-9-10-9-10-9-10-9-10-12-12-10-10--9--9--9--10-9-10-9-10-9-10-9---|
Eb---------------------------------------------------------------------|

eb-------------------|
Bb-------------------|
Gb--5-7-7--5-5--4----|
Db--0-0-0--0-0--0----|
Ab--3-5-5--3-3--2----|
Eb-------------------|

Play that whole thing twice.

Chorus riff

Bridge riff

And you're done.

Comments about this tab

No comments/corrections found. Add your own

Complimentary Christian Ringtones
Dadamobile and CGR have teamed up to bring your favorite Christian artists right to your phone. Sign up today and get 10 complementary ringtones!
Tab Country
Did you know CGR has a sister site w/ country guitar tabs? Well we do! Its called Tab Country. It has a great archive with a lot of country tabs.
Rockin Tabs
Are you looking for a site that has rock guitar tabs? Then Rockintabs.com is the place for you. It is a budding site with many rock guitar tabs. Submit your tab today.
Tab Gallery
Tab Gallery has a compilation of christian, rock, and country tabs all in one place. Come visit us.