Guitar Tabs
song title    band name

Join Us Today!

Don't strum alone...
be a part of the largest online Christian music community. Browse thousands of guitar tabs and chat w/ musicians like yourself.


It's Free!

This tab has been rated a 4.80 out of 5 for accuracy. (5 votes)Sorry, but you must be logged in to rate this tab.
Click here to log-in, or you can click here to register.
(Registration is free)

All songs owned by corresponding publishing company. If you make copies of any song on this website, be sure to report your usage to CCLI.
Submitted by: stevee2000

All Day
Marty Sampson

z

Distortion 

Verse 1
e----------------|------------------|
B----------------|------------------|
G----------------|--4-4-4-----------|
D--6-6-6---2-2-2-|--4-4-4---4-4-4---|
A--6-6-6---2-2-2-|--2-2-2---4-4-4---|
E--4-4-4---0-0-0-|----------2-2-2---|

REPEAT 10 TIMES

ON 11TH time the 2nd guitar comes in with

e-------------------------------------------------------------
B-12-12-11-11-12-12---12-12-11-11-12-12---12-12-11-11-12-12---
G------------------9-8-----------------9-8-----------------9-8
and then
e------------11/12\11
B-12-12-11-11--------
G--------------------

Guitar 1 continues throughtthe whole riff wich takes up 8 measures

Verse 2
e----------------|------------------|
B----------------|------------------|
G----------------|--4-4-4-----------|
D--6-6-6---2-2-2-|--4-4-4---4-4-4---|
A--6-6-6---2-2-2-|--2-2-2---4-4-4---|
E--4-4-4---0-0-0-|----------2-2-2---|

repeat 10 times

Chorus
e----------------|----------------|----------------|----------------
B----------------|----------------|----------------|----------------
G--4-4-4---------|--4-4-4---------|--4-4-4---------|----------------
D--4-4-4---2-2-2-|--4-4-4---4-4-4-|--4-4-4---2-2-2-|--6-6-6---2-2-2-
A--2-2-2---2-2-2-|--2-2-2---4-4-4-|--2-2-2---2-2-2-|--6-6-6---2-2-2-
E----------0-0-0-|----------2-2-2-|----------0-0-0-|--4-4-4---0-0-0-

repeat

then verse 1 again

then the chorus
 
then the Bridge

e--------------|--------------|
B--------------|--------------|
G-6-6-6--------|--------------|
D-6-6-6--------|-2-2-2--------|
A-4-4-4--------|-2-2-2--------|
E--------------|-0-0-0--------|

Repeats 8 times and then the ending is the Chorus 3 times.

we do this song at my youth group and it is really fun
that is also why I don't know what the copy write info is because 
I just know it from Church.

suggestions are welcome!!

Comments about this tab

stevee2000 - 2004-12-04

sorry the Z at the top is a mistake


tjblitz - 2005-03-28

hey could i get the cords and words please


slaminballer - 2005-04-19

Yo, hows is everyone,
I just wanted to say nice job on the tabs and also does anyone have the words to this songs thanks, email- tscho125@hotmail.com


stevee2000 - 2005-05-27

sry I heard that it is not legal to put the words on this site but you could try sites like letssingit.com
but beware it is crawling with pop-ups so get yourself a pop-up stopper


stevee2000 - 2005-05-27

oh ya the cord progression is
G# E| B F#| for the verse
the chorus is
B E| B F#| B E| G# E|
and the bridge is
C#| E| C#| E| C#| E| B| E|


waterboy1824 - 2005-09-22

where can i find the lyrics?

*waterboy1824*


waterboy1824 - 2005-09-22

here's my e-mail, henson469@cs.com

~~~~~God bless~~~


krdenetdale70 - 2005-09-26

if you don't know the lyrics to the song, just listen to the cd if you have it and write them doen, then go back and put in the chords.


jguitar08 - 2006-04-06

that little riff after the first verse is right except at the end of it.i think the end of it goes:
b:12--12--12--12--14--16--14--12(let it ring)


Add a comment/correction

Complimentary Christian Ringtones
Dadamobile and CGR have teamed up to bring your favorite Christian artists right to your phone. Sign up today and get 10 complementary ringtones!
Tab Country
Did you know CGR has a sister site w/ country guitar tabs? Well we do! Its called Tab Country. It has a great archive with a lot of country tabs.
Rockin Tabs
Are you looking for a site that has rock guitar tabs? Then Rockintabs.com is the place for you. It is a budding site with many rock guitar tabs. Submit your tab today.
Tab Gallery
Tab Gallery has a compilation of christian, rock, and country tabs all in one place. Come visit us.