Guitar Tabs
song title    band name

Join Us Today!

Don't strum alone...
be a part of the largest online Christian music community. Browse thousands of guitar tabs and chat w/ musicians like yourself.


It's Free!

This tab has been rated a 5.00 out of 5 for accuracy. (6 votes)Sorry, but you must be logged in to rate this tab.
Click here to log-in, or you can click here to register.
(Registration is free)

All songs owned by corresponding publishing company. If you make copies of any song on this website, be sure to report your usage to CCLI.
Submitted by: jolek14

Sanctus Real
Audience of One
 2002 Birdwing Music ASCAP
Written by Rohman/Hammitt

Tuned half step down and drop D

INTRO
CHRIS
(palm muted)
e ----------------------------------------------------
B ----------------------------------------------------
G -11-11-11-11-11-11-11-11-11-11-11-11-11-11-9-9-9-9-9
D -9--9--9--9--9--0--0-0-0-0--11-11-11-11-11-9-9-9-9-9
A -9--9--9--9--9--0--0-0-0-0--9--9--9--9--9--9-9-9-9-9
D -9--9--9--9--9--0--0-0-0-0-------------------------- 

MATT
e -----------------------------------------------------
B -----------------------------------------------------
G -11-------------11----------9--------------9---------
D -9--------------0-----------11-------------9---------
A -9--------------0-----------9--------------9---------
D -9--------------0------------------------------------

VERSE
CHRIS                                  (Matt plays this too)
e ----------------------------------------------------------------
B ----------------------------------------------------------------
G -7-7-7-7-7-7-4-4-4-4-4-4-6-6-7-6-9-6-7-7-7-6-6-6-7-7-7-6-6-6-7-9
D -7-7-7-7-7-7-4-4-4-4-4-4-7-7-7-7-7-7----------------------------
A -5-5-5-5-5-5-2-2-2-2-2-2-0-0-0-0-0-0-5-5-5-4-4-4-5-5-5-4-4-4-5-7
D ----------------------------------------------------------------

PRECHORUS
CHRIS
e ------------------------------------
B ------------------------------------
G -11----------12----------14---------
D ------------------------------------
A -9-----------10----------12---------
D ------------------------------------

MATT
e ------------------------------------
B ------------------------------------
G -7-7-7-7-7-7------------------------
D -7-7-7-7-7-7-7-7-7-7-7-7-5-5-5-5-5-5  Then both do cruncy mutes and go to chorus
A -5-5-5-5-5-5-7-7-7-7-7-7-5-5-5-5-5-5
D -------------7-7-7-7-7-7-5-5-5-5-5-5


CHORUS (This can be played as one guitar but on the record its 2)
CHRIS
e ------------------------------------------------------------------
B ------------------------------------------------------------------
G -7-7-7-7-7-7-7-7-9-9-9-9-9-9-9-9-9-7-7-7-7-7-7-7-7-6s7-7-7-7s9-9-9
D ------------------------------------------------------------------
A -5-5-5-5-5-5-5-5-7-7-7-7-7-7-7-7-7-5-5-5-5-5-5-5-5-4s5-5-5-5s7-7-7
D ------------------------------------------------------------------

e ------------------------------------------------------------------
B ------------------------------------------------------------------
G -7-7-7-7-7-7-7-7--------------------------------------------------
D -7-7-7-7-7-7-7-7-7-7-7-7-7-7-7-7-7-5-5-5-5-5-5-5-5-4s5-5-5-5h7-7-7
A -5-5-5-5-5-5-5-5-7-7-7-7-7-7-7-7-7-5-5-5-5-5-5-5-5-4s5-5-5-5h7-7-7
D -0-0-0-0-0-0-0-0-7-7-7-7-7-7-7-7-7-5-5-5-5-5-5-5-5-4s5-5-5-5h7-7-7

BRIDGE

MATT
e ----------------------------------------------------------------
B ----------------------------------------------------------------
G -7-7-7-7-7-7----------------------------------------------------
D -7-7-7-7-7-7-7-7-7-7-7-7-9-9-9-9-9-9-7-7-7-7-7-7-4h5-5-5-5-5-5-5-4h5-5-5-5s7-7-7
A -5-5-5-5-5-5-7-7-7-7-7-7-9-9-9-9-9-9-7-7-7-7-7-7-4h5-5-5-5-5-5-5-4h5-5-5-5s7-7-7
D -0-0-0-0-0-0-7-7-7-7-7-7-9-9-9-9-9-9-7-7-7-7-7-7-4h5-5-5-5-5-5-5-4h5-5-5-5s7-7-7

Then after "Yesterday is gone" play:
CHRIS
e ------------------------------
B ------------------------------
G -11s9s7s4s7-7s14s11-11s9s7s4s7
D ------------------------------
A -9s-7s5s2s5-5s12s9--9s-7s5s2s5
D ------------------------------

MATT
e ------------------------------
B ------------------------------
G ------------------------------
D -2-2-2-2-5-5-5-5-5--2-2-2-2--5
A -2-2-2-2-5-5-5-5-5--2-2-2-2--5
D -2-2-2-2-5-5-5-5-5--2-2-2-2--5

End on
e -
B -
G -
D 0
A 0
D 0

Comments about this tab

jolek14 - 2004-08-31

The thrid chord in the intro is:

e--
B--
G-9
D-11
A-9
D--

Sorry about that.


sanctusfan14 - 2004-09-06

looks good, i havnt tried it yet, but ive been waitin for a tab(besides the other one) for this song, ill try this out


Silver_13 - 2005-04-16

HEy can somebody put chords and lyrics fer this song on here???? I'm not very good at that And I can't figer it out me self!!!


JohnM - 2005-04-25

Good tab.

Lyrics can't legally be posted. Chords, well, this song is much more of a rock song and is better described using tabs, such as this.


Music_lover - 2005-05-09

Great tab!

Its pretty good, I saw Sanctus last night, and I think that's actually what there were doing.


sanctusfan14 - 2005-06-17

great, i give it a 5, keep it up!


sanctusfan14 - 2005-06-22

except one thing, in the verse, everything is good except the first chord, which he plays like this
eb------------
Bb------------
Gb-7-9-7-6-7-7
Db-7-7-7-7-7-7
Ab-5-5-5-5-5-5
Db------------


seth guido - 2005-07-08

awsome tab. i really liked it keep the good work up!


pleesehelpme - 2005-09-11

hey im new to this tabbing thing i just got finished with guitar lessons but im still just a begginner. can someone maby like tudor me about all this stuff or sumthin please? well g2g by


pleesehelpme - 2005-09-11

wait one question the letters right before the tab why is it dad.. i thought it was ead. or did i just get it wrong?


110%panhead - 2005-09-13

that's the tuning of the guitar--tune the lowest string down to D


Add a comment/correction

Complimentary Christian Ringtones
Dadamobile and CGR have teamed up to bring your favorite Christian artists right to your phone. Sign up today and get 10 complementary ringtones!
Tab Country
Did you know CGR has a sister site w/ country guitar tabs? Well we do! Its called Tab Country. It has a great archive with a lot of country tabs.
Rockin Tabs
Are you looking for a site that has rock guitar tabs? Then Rockintabs.com is the place for you. It is a budding site with many rock guitar tabs. Submit your tab today.
Tab Gallery
Tab Gallery has a compilation of christian, rock, and country tabs all in one place. Come visit us.