Guitar Tabs
song title    band name

Join Us Today!

Don't strum alone...
be a part of the largest online Christian music community. Browse thousands of guitar tabs and chat w/ musicians like yourself.


It's Free!

This tab has been rated a 2.80 out of 5 for accuracy. (5 votes)Sorry, but you must be logged in to rate this tab.
Click here to log-in, or you can click here to register.
(Registration is free)

All songs owned by corresponding publishing company. If you make copies of any song on this website, be sure to report your usage to CCLI.
Submitted by: stinkey diver

Song: A message for Adrian
Artist: Underoath
This song is tabbed in D tune 

Palm mute .......
Slide \\
Let ring~~

Both guitars
E:---------------------------------------------------------
B:---------------------------------------------------------
G:---------------------------------------------------------
D:-0-0-5-3-0-0-5-3-0-0-5-3-0-0-5\\-------------------------     4x
A:-0-0-5-3-0-0-5-3-0-0-5-3-0-0-5\\-------------------------
D:-0-0-5-3-0-0-5-3-0-0-5-3-0-0-5\\-------------------------

E:---------------------------------------------------------
B:---------------------------------------------------------
G:---------------------------------------------------------
D:-0-0-5-3-0-0-5-3-0-0-5-3-0-0-5\\-------------------------     4x
A:-0-0-5-3-0-0-5-3-0-0-5-3-0-0-5\\------------------------- 
D:-0-0-5-3-0-0-5-3-0-0-5-3-0-0-5\\-------------------------
   ............................. 

E:--------------------------------------------------------
B:--------------------------------------------------------
G:-2-2--2-2--22-222--3-3--3-3-33--333---------------------
D:-2-2--2-2--22-222--3-3--3-3-33--333---------------------    2x
A:-0-0--0-0--00-000--1-1--1-1-11--111---------------------
D:--------------------------------------------------------

Guitar 1
E:------------------------------------------------------
B:------------------------------------------------------
G:-22222222223333333333---------------------------------
D:-22222222223333333333---------------------------------    4x
A:-00000000001111111111---------------------------------
D:------------------------------------------------------

Guitar 2                                                       
D:-------------------------------------------------------------------   
A:-777777777788888888884444444444777777777788888888887777777777777777  2x
D:-------------------------------------------------------------------

Guitar 1
E:--------------------------------------------------------
B:--------------------------------------------------------
G:-2-2--2-2--22-222--3-3--3-3-33--333---------------------
D:-2-2--2-2--22-222--3-3--3-3-33--333---------------------    2x
A:-0-0--0-0--00-000--1-1--1-1-11--111---------------------
D:--------------------------------------------------------

Guitar2 
G:-9-----8-----7-----7-                                G:-9-----8-----7-----
D:---8-----7-----6-----8-      3x    then this         D:---8-----7-----6-----
A:-----7-----6-----5-----9-                            A:-----7-----6-----5-----9

Guitar1
D:-0~~---0~~---
A:-0~~---0~~---  4x			
D:-0~~---0~~---

Guitar 2
G:-9-----8-----7-----9-
D:---8-----7-----6-----8-    4x
A:-----7-----6-----5-----7-

Guitar1
D:-0000
A:-0000 16x
D:-0000

Both guitars 
D:-0~~
A:-0~~
D:-0~~

G:-33-----------------22------3333322222
D:-33-----------------22------3333322222  2x
A:-11-----------------00------1111122222

Guitar 1

G:-33333-22222                                       D:-0~~
D:-33333-22222   8x  on eighth time end with         A:-0~~
A:-11111-00000                                       D:-0~~

Guitar 2

D:-15--14------
A:----------15--         16x

Guitar 1

D:-0000-0~~--0~~0000-0~~
A:-0000-0~~--0~~0000-0~~
D:-0000-0~~--0~~0000-0~~
   ....         ....
Guitar 2

G:-7-7-7-7-7-7-7-7-6-6-6-6-6-6-6-6-7-7-7-7-7-7-7-7-6-6-6-6-9-9-9-9
D:----------------------------------------------------------------   2x  
A:-5-5-5-5-5-5-5-5-4-4-4-4-4-4-4-4-5-5-5-5-5-5-5-5-4-4-4-4-7-7-7-7

Guitar1

G:------2------2------2-----2~~
D:------2------2------2-----2~~   8x
A:--00--0--00--0--00--0--00-0~~

Guitar 2

G:-12-12-12-12-12-12-12-12-10-10-10-10-10-10-10-10
D:------------------------------------------------
A:-10-10-10-10-10-10-10-10-8--8---8--8--8--8--8--8

Guitar 2 continued 

G:-15-15-15-15-15-15-15-15-14-14-14-14-14-14-14-14
D:------------------------------------------------    16x  fast  strum
A:-13-13-13-13-13-13-13-13-12-12-12-12-12-12-12-12

Guitar 2 plays alone 

G:-7\99\10/5
D:------------ 2x not entirely sure about this one
A:-5\77\ 8/3

Guitar 1

D:-77777777777777777777-777777777777777
A:-77777777777777777777-777777777777777 a lot of times
D:-77777777777777777777-777777777777777

Guitar 2

G:-7777799999101010101055555
D:-------------------------- 8x fast strum
A:-5555577777888888888833333

Guitar 1 clean

G:-7777777777-666666666-66666777776666677777
D:------------------------------------------ 3x  you fig out the strum pattern i lazy
A:-5555555555-444444444-55555555555555555555

Guitar 2

G:-19-19-18--19-19-18--19-19-18--14-19-19-18--14

A:-0~~0~~0-00000-00-000000-0   I guess this is the ending ? 
D:-0~~0~~0-00000-00-000000-0
           .....    ......

Comments about this tab

clew - 2004-10-13

what cd is this off?


underOath80 - 2004-12-06

Its off of The Changing Of Times


musicman_360 - 2005-03-16

You kids are such lazy a**holes right down the whole tab.


UnderOath4gramy - 2005-05-11

man....im very sorry to have to be the one to tell you this...but...that has got to qualify as the "Worst Tab of the Year"!!!! the beginning of the song is hammer on / pull offs man! try this--> h(hammer) p (Pull off)
((DaD)gbe)
1p0 3p0 1p0 5p0 1p0 6p0 1p0 7/0 (repeat) I'm not even gonna bother with the rest...i would almost have to correct the entire tab...practice and listen! Pause and Playback! you'll get it right someday..

'Welcome
Michael Brignac


UnderOath4gramy - 2005-05-11

man....im very sorry to have to be the one to tell you this...but...that has got to qualify as the "Worst Tab of the Year"!!!! the beginning of the song is hammer on / pull offs man! try this--> h(hammer) p (Pull off)
((DaD)gbe)
1p0 3p0 1p0 5p0 1p0 6p0 1p0 7/0 (repeat) I'm not even gonna bother with the rest...i would almost have to correct the entire tab...practice and listen! Pause and Playback! you'll get it right someday..

'Welcome
Michael Brignac


anarion614 - 2006-11-21

no wonder i couldnt find the song...its "A Message for Adrienne". my name is Adrian and people always misspell it


Ooblar - 2007-05-05

This tab absolutly stinks!?!?! dude i figured this out in like an hour!

I have my tab for this song coming soon... for those who cant wait
here's a sample of it:)
E[-----------------------------------]
B[-----------------------------------]
G[-----------------------------------]
D[-1-0-0-0-3-0-0-0-1-0-0-0-6-0-0-7\0-]x4then repeat palm muting
A[-1-0-0-0-3-0-0-0-1-0-0-0-6-0-0-7\0-]
D[-1-0-0-0-3-0-0-0-1-0-0-0-6-0-0-7\0-]

Hope u like


Add a comment/correction

Complimentary Christian Ringtones
Dadamobile and CGR have teamed up to bring your favorite Christian artists right to your phone. Sign up today and get 10 complementary ringtones!
Tab Country
Did you know CGR has a sister site w/ country guitar tabs? Well we do! Its called Tab Country. It has a great archive with a lot of country tabs.
Rockin Tabs
Are you looking for a site that has rock guitar tabs? Then Rockintabs.com is the place for you. It is a budding site with many rock guitar tabs. Submit your tab today.
Tab Gallery
Tab Gallery has a compilation of christian, rock, and country tabs all in one place. Come visit us.