Guitar Tabs
song title    band name

Join Us Today!

Don't strum alone...
be a part of the largest online Christian music community. Browse thousands of guitar tabs and chat w/ musicians like yourself.


It's Free!

This tab has been rated a 5.00 out of 5 for accuracy. (8 votes)Sorry, but you must be logged in to rate this tab.
Click here to log-in, or you can click here to register.
(Registration is free)

All songs owned by corresponding publishing company. If you make copies of any song on this website, be sure to report your usage to CCLI.

Comments about this tab

mmggppmgp - 2004-07-18

yo, this is awesome... sometimes i start with the 11th string instead of the 7th


mmggppmgp - 2004-07-18

i mean 10th...


swiss cheese - 2004-10-02

yeah what this guy is saying is you can also play it like this
e|--------------------------------------------------------------------------------
B|-10/11-11-11-10-----------------------------------------------------------------
G|----------------10-12-10-10/12-12-12-10--------------------------------------10--
D|----------------------------------------10-10/12-12/13-13-13-12/8-8-10/5-5-0----
A|--------------------------------------------------------------------------------
E|--------------------------------------------------------------------------------


mmggppmgp - 2004-10-30

lol i was young n naive... y play it like that wen the third fret is capoed... in other words in a different key


Joe Cool69 - 2005-03-17

You guys got this wrong. Take it from a proffesional,like me. I play this at the main sanctuary at my chruch. Thats how good I am. This is how good this solo is.

The solo goes like this:

h- Hamer on
s- Slide

e-------------------------------------------------------------------
b--10h11-11-11-10s--6-8-6h8-8-8-6-----------------------------3-------
g--------------------------------5-5s-7-7h8-8-8-7------------3-3------
d-------------------------------------------------8-10-8s-5-3--------------
a-------------------------------------------------------------------
e-------------------------------------------------------------------


swatkatraz - 2005-03-22

wow that makes me NOT want to sit under your "worship" service.


gtrox17 - 2005-03-26

true dat

-PB


ImOnFire - 2005-04-05

Joe Cool69, I dont think that is a very good christian attitude you've got there!


imxru2 - 2005-04-11

i agree. what does It say "don't be conceted"?


Add a comment/correction

Complimentary Christian Ringtones
Dadamobile and CGR have teamed up to bring your favorite Christian artists right to your phone. Sign up today and get 10 complementary ringtones!
Tab Country
Did you know CGR has a sister site w/ country guitar tabs? Well we do! Its called Tab Country. It has a great archive with a lot of country tabs.
Rockin Tabs
Are you looking for a site that has rock guitar tabs? Then Rockintabs.com is the place for you. It is a budding site with many rock guitar tabs. Submit your tab today.
Tab Gallery
Tab Gallery has a compilation of christian, rock, and country tabs all in one place. Come visit us.