Guitar Tabs
song title    band name

Join Us Today!

Don't strum alone...
be a part of the largest online Christian music community. Browse thousands of guitar tabs and chat w/ musicians like yourself.


It's Free!

This tab has been rated a 5.00 out of 5 for accuracy. (6 votes)Sorry, but you must be logged in to rate this tab.
Click here to log-in, or you can click here to register.
(Registration is free)

All songs owned by corresponding publishing company. If you make copies of any song on this website, be sure to report your usage to CCLI.
Submitted by: Adam K

Skillet-Alien Youth
Drop C Tuning C-G-C-F-A-D
I changed the tuning from the other Alien Youths.
Intro 1
F------------------
C-10---7--10-------
G--8---5----------- x8
C------------------

Intro 2
C-3---0---------
G-3---0--3------ x4
C-3---0---------

Verse
(Mostly Bass)

Pre-Chorus 1
(Just Drums)

Chorus
F----10--5--7-----10-----7-----10--5--7---------
C-5--10--5--7--5--10--8--7--5--10--5--7--8-7--5-
G-5---8--3--5--5---8--8--5--5---8--3--5--8-7--5-
C-5------------5------8-----5------------8-7--5-

Intro 2
Verse

Pre-Chorus 2
F-9--5---------------
C-9--5--7------------
G-7--3--7------------ x2
C-------7------------

Chorus
Intro 2
Pre-Chorus 1
Solo-I haven't tried to figure the solo out yet.

Bridge
F-9--5---------------   -9--5------
C-9--5--7------------   -9--5------
G-7--3--7------------ x3-7--3------
C-------7------------   -----------

Chorus 2
F----10--5--7-----10-----7-----10--5--7---------
C-5--10--5--7--5--10--8--7--5--10--5--7--8-7--5-
G-5---8--3--5--5---8--8--5--5---8--3--5--8-7--5- x2
C-5------------5------8-----5------------8-7--5-

Outro
C-3---0---------
G-3---0--3------ x4
C-3---0---------

Tabbed by Adam K


Comments about this tab

GodMusic395 - 2005-07-09

looking for st. clair county michigan resident who plays guitar for my rock band if your interested e-mail me at GodMusic395@aol.com


c_crab35 - 2005-12-13

that sounds pretty good, but i might have changed it up a little bit.... but I am not really sure of exactly how I played it!


Add a comment/correction

Complimentary Christian Ringtones
Dadamobile and CGR have teamed up to bring your favorite Christian artists right to your phone. Sign up today and get 10 complementary ringtones!
Tab Country
Did you know CGR has a sister site w/ country guitar tabs? Well we do! Its called Tab Country. It has a great archive with a lot of country tabs.
Rockin Tabs
Are you looking for a site that has rock guitar tabs? Then Rockintabs.com is the place for you. It is a budding site with many rock guitar tabs. Submit your tab today.
Tab Gallery
Tab Gallery has a compilation of christian, rock, and country tabs all in one place. Come visit us.