Guitar Tabs
song title    band name

Join Us Today!

Don't strum alone...
be a part of the largest online Christian music community. Browse thousands of guitar tabs and chat w/ musicians like yourself.


It's Free!

This tab has been rated a 5.00 out of 5 for accuracy. (3 votes)Sorry, but you must be logged in to rate this tab.
Click here to log-in, or you can click here to register.
(Registration is free)

All songs owned by corresponding publishing company. If you make copies of any song on this website, be sure to report your usage to CCLI.
Submitted by: Adam K

Skillet-Alien Youth
Drop C Tuning C-G-C-F-A-D
(I'm not putting timing down or rythym just order of song and chords)
Intro
F-------------
C-10---7---10-
G--8---5------ x8
C-------------

F-------------
C--3---0------
G--3---0---3-- x4
C--3---0------

Verse 
(Mostly Bass)

Pre-Chorus
(Just Drums)

Chorus
F----10--5--7-----10-----7-----10--5--7---------
C-5--10--5--7--5--10--8--7--5--10--5--7--8-7--5-
G-5---8--3--5--5---8--8--5--5---8--3--5--8-7--5-
C-5------------5------8-----5------------8-7--5-

Post-Chorus
F-------------
C--3---0------
G--3---0---3-- x4
C--3---0------

Verse

Pre-Chorus 2
F-9--------
C-9--10--7-
G-7--10--7- x2
C----10--7-

Chorus
Post-Chorus
Pre-Chorus 

Pre-Chorus 3
F-9--------   -9-------
C-9--10--7-   -9--10-x- 
G-7--10--7- x3-7--10-x-
C----10--7-   ----10-x-

Chorus x2

Outro
F-------------
C--3---0------
G--3---0---3-- x4
C--3---0------

 Tabbed by Adam K

Comments about this tab

JesusFreak_IKM - 2005-04-05

on the tuning dont you mean Drop-d down a whole step, drop c would be (C-a-d-g-b-e)


JohnM - 2005-04-08

Drop C IS Drop D down a whole step.


joellaw44 - 2005-07-25

No, Drop C is what everyone calls Drop D, Tune down a step, because its a lot easier to say. It's not the correct thing to call it though. Guess it really doesn't matter as long as people know what you're talking about.
By the way, good tab.


110%panhead - 2005-08-27

drop D is DADGBE
drop C is CGCFAD


Adam K - 2005-09-24

amen panhead.


Dani_Boy - 2006-04-16

Panhead is right! I'm just adding a few more.

Drop Db is: Db, Ab, Db, Gb, Bb, Eb
or C#, G#, C#, F#, A#, D#

Drop B is: B, Gb, B, E, Ab, Db
or B, F#, B, E, G#, C#

Double Drop D is: D, A, D, G, B, D

Just trying to fill out a little bit more, God Bless!


guitarcordfreak - 2006-10-03

the intro is like this
\=slide down
-------------------------
------------------6b-----
--8-8-8\5-5-5-5---------
--8-8-8\5-5-5-5---------
--6-6-6\3-3-3-3---------
-------------------------
I think this sounds right,and I also think it is in drop D thats what i play it in.


|)rink)v(tn|)ew - 2007-01-04

"4b" on the b string


Add a comment/correction

Complimentary Christian Ringtones
Dadamobile and CGR have teamed up to bring your favorite Christian artists right to your phone. Sign up today and get 10 complementary ringtones!
Tab Country
Did you know CGR has a sister site w/ country guitar tabs? Well we do! Its called Tab Country. It has a great archive with a lot of country tabs.
Rockin Tabs
Are you looking for a site that has rock guitar tabs? Then Rockintabs.com is the place for you. It is a budding site with many rock guitar tabs. Submit your tab today.
Tab Gallery
Tab Gallery has a compilation of christian, rock, and country tabs all in one place. Come visit us.