Guitar Tabs
song title    band name

Join Us Today!

Don't strum alone...
be a part of the largest online Christian music community. Browse thousands of guitar tabs and chat w/ musicians like yourself.


It's Free!

This tab has been rated a 5.00 out of 5 for accuracy. (2 votes)Sorry, but you must be logged in to rate this tab.
Click here to log-in, or you can click here to register.
(Registration is free)

All songs owned by corresponding publishing company. If you make copies of any song on this website, be sure to report your usage to CCLI.
Submitted by: tmacfan99

Song: All About You
Artist: Nate Sallie
Written by: Nate Sallie
Copyright: 2003 Curb Records
Tabbed by: Brittainy
Email: iplay4jesus2@yahoo.com

Intro:

Guitar 1:
E:------------------
B:------------------
D:-5-5-----3-3------play 4x and on the 4th
G:-5-5-5-5-3-3-3-3--hold the last note
A:-3-3-5-5-1-1-3-3--
E:-----3-3-----1-1--

Guitar 2:
E:----12-13-12-13-15-13-12-13-12-13-12-13-12--- 
B:-13----------------------------------------13
D:---------------------------------------------
G:---------------------------------------------
A:---------------------------------------------
E:---------------------------------------------
play 2x then at the end of the 2nd play
E:12-13-12-13-12-13-12\
B:---------------------

Verses:
E:--------------------------------------------------------------
B:--------------------------------------------------------------
G:-5-5-5-5-5-5-5-----------------3-3-3-3-3-3-3-3----------------
D:-5-5-5-5-5-5-5-5-5-5-5-5-5-5-5-3-3-3-3-3-3-3-3-3-3-3-3-3-3-3-3play 4x
A:-3-3-3-3-3-3-3-5-5-5-5-5-5-5-5-1-1-1-1-1-1-1-1-3-3-3-3-3-3-3-3
E:---------------3-3-3-3-3-3-3-3-----------------1-1-1-1-1-1-1-1

Chorus:
E:
B:
G:-5-5-----3-3-----5-5-5-x-x-x-------------3-3-3-x-x-x------
D:-5-5-5-5-3-3-3-3-5-5-5-x-x-x-5-5-5-x-x-x-3-3-3-x-x-x-3-3-3-3-3-3-3-3-5
A:-3-3-5-5-1-1-3-3-3-3-3-x-x-x-5-5-5-x-x-x-1-1-1-x-x-x-3-3-3-3-3-3-3-3-5
E:-----3-3-----1-1-------------3-3-3-x-x-x-------------1-1-1-1-1-1-1-1-3

This is how we play it at my church. If it is a lot different than the
original song feel free to email me.

Comments about this tab

21Frets - 2004-11-28

I can't really remember, but is the first verse
palm-muted? I don't have this CD but I've heard
it on the radio. Its an awesome song!


Tyran001 - 2005-09-16

dude, good jorb on teh tab man. so, do you think you could tab inside out?
that is my favorite NS song. i would really really really appreciate it alot.


Add a comment/correction

Complimentary Christian Ringtones
Dadamobile and CGR have teamed up to bring your favorite Christian artists right to your phone. Sign up today and get 10 complementary ringtones!
Tab Country
Did you know CGR has a sister site w/ country guitar tabs? Well we do! Its called Tab Country. It has a great archive with a lot of country tabs.
Rockin Tabs
Are you looking for a site that has rock guitar tabs? Then Rockintabs.com is the place for you. It is a budding site with many rock guitar tabs. Submit your tab today.
Tab Gallery
Tab Gallery has a compilation of christian, rock, and country tabs all in one place. Come visit us.