Guitar Tabs
song title    band name

Join Us Today!

Don't strum alone...
be a part of the largest online Christian music community. Browse thousands of guitar tabs and chat w/ musicians like yourself.


It's Free!

This tab has been rated a 2.75 out of 5 for accuracy. (4 votes)Sorry, but you must be logged in to rate this tab.
Click here to log-in, or you can click here to register.
(Registration is free)

All songs owned by corresponding publishing company. If you make copies of any song on this website, be sure to report your usage to CCLI.
Submitted by: Levi15

This is the acoustic live version of ashamed off theyre c.d. Pillar Broken
Down E.P.  There wasnt an acoustic version so here it is.

Artist:Pillar
Song:ashamed

Intro and verse

----------------------------------------------
----------------------------------------------
------5---7---5-------------------------------
--2---5---7---5---2---------------------------
--0---3---5---3---0---------------------------
-x-x-x-x-x-x-x-x-x-x-x-x-x-x-x-x-x-x-x-x-x-x-x

Chorus

----------------------------------------------
----------------------------------------------
--5-------5-------7---------------------------
--5---2---5---2---7---------------------------
--3---0---3---0---5---------------------------
-x-x-x-x-x-x-x-x-x-x-x-x-x-x-x-x-x-x-x-x-x-x-x
--3-

Comments about this tab

Metallistically - 2004-02-29

This sounds like it's accurate. It might be longer though. I'll tell you when I listen to it.


dandesmond - 2004-11-05

Yeah this is a cool tab man. Well done!


39lashes - 2005-01-19

its A SHAME you cant figure out the right way to play it


Drizzt - 2006-06-24

this is a really sweet tab. all u pillar fans wood like storyside Evry thing and more.


Add a comment/correction

Complimentary Christian Ringtones
Dadamobile and CGR have teamed up to bring your favorite Christian artists right to your phone. Sign up today and get 10 complementary ringtones!
Tab Country
Did you know CGR has a sister site w/ country guitar tabs? Well we do! Its called Tab Country. It has a great archive with a lot of country tabs.
Rockin Tabs
Are you looking for a site that has rock guitar tabs? Then Rockintabs.com is the place for you. It is a budding site with many rock guitar tabs. Submit your tab today.
Tab Gallery
Tab Gallery has a compilation of christian, rock, and country tabs all in one place. Come visit us.