Guitar Tabs
song title    band name

Join Us Today!

Don't strum alone...
be a part of the largest online Christian music community. Browse thousands of guitar tabs and chat w/ musicians like yourself.


It's Free!

This tab has been rated a 4.44 out of 5 for accuracy. (9 votes)Sorry, but you must be logged in to rate this tab.
Click here to log-in, or you can click here to register.
(Registration is free)

All songs owned by corresponding publishing company. If you make copies of any song on this website, be sure to report your usage to CCLI.
Submitted by: AllTheWayLive86

Tabbed by: Rob Trennepohl
allthewaylive86@yahoo.com

This is  great song.  This is the original version, track 2 on Satelite, not
the acoustic version you get on the special edition of Satelite.

Drop C Tuning

E
B
G
C
G
C

Intro/Verse (x5) (after playing this five times drop down to the ending
just below this and play that once):
E-----------------------------------------------------------------
B-----------------------------------------------------------------
G-----------------------------------------------------------------
C--2-2-2-0-2--7-7-7-7-10-10-10-10-10-10-10-10--10-10-10-10-5-5-5--
G--2-2-2-0-2--7-7-7-7-10-10-10-10-10-10-10-10--10-10-10-10-5-5-5--
C--2-2-2-0-2--7-7-7-7-10-10-10-10-10-10-10-10--10-10-10-10-5-5-5--

Ending to Verse (play this after playing what is above.  This part should
be played once):
E-------------------------------------------------------------
B-------------------------------------------------------------
G-------------------------------------------------------------
C--2-2-2-0-2--7-7-7-7-10-10-10-10-10-10-10-10--5-5-5-5-5-5-5--
G--2-2-2-0-2--7-7-7-7-10-10-10-10-10-10-10-10--5-5-5-5-5-5-5--
C--2-2-2-0-2--7-7-7-7-10-10-10-10-10-10-10-10--0-0-0-0-0-0-0--

Chorus (x2):
E-----------------------0-------------------------------------------
B--------------1--1--1--3-------------------------------------------
G-------------------------------------------------------------------
C--10-10-10-10-10-10-10-10-10-10-10-10-10-10-10-10-9-9-9-9-9-9-9-9--
G--10-10-10-10-10-10-10-10-10-10-10-10-10-10-10-10-9-9-9-9-9-9-9-9--
C--10-10-10-10-10-10-10-10-10-10-10-10-10-10-10-10-9-9-9-9-9-9-9-9--

E------------------------------------------------------------------------------
B------------------------------------------------------------------------------
G------------------------------------------------------------------------------
C--9-9-9-9-9-9-9-9-5-5-5-5-5-5-5-5-5-5-5-5-0-HOLD--5-5-5-5-5-5-5-5-5-4-2-4-2-0-
G--9-9-9-9-9-9-9-9-5-5-5-5-5-5-5-5-5-5-5-5-0-HOLD--5-5-5-5-5-5-5-5-------------
C--9-9-9-9-9-9-9-9-5-5-5-5-5-5-5-5-5-5-5-5-0-HOLD--5-5-5-5-5-5-5-5-------------

Verse (x3)

Ending to Verse (x1)

Chrous (x2)

Bridge 
E-----------12/13-12-12/13-12-12/13-12-12/13-12-12/13-12-12/13-12-12/13-
B-----------------------------------------------------------------------
G-----------------------------------------------------------------------
C--2--5/4-0-------------------------------------------------------------
G-----------------------------------------------------------------------
C-----------------------------------------------------------------------

E--12-12/13-12/13-12/13-12/13-12/13-------------PICK-SLIDE------------
B---------------------------------------------6-----------------------
G---------------------------------------------7-----------------------
C------------------------------------2--5/4-0---------------2--5/4-0--
G---------------------------------------------------------------------
C---------------------------------------------------------------------

E--12/13-12-12/13-12-12/13-12-12/13-12-12/13-12/13-12/13-12/13-12/13--
B---------------------------------------------------------------------
G---------------------------------------------------------------------
C---------------------------------------------------------------------
G---------------------------------------------------------------------
C---------------------------------------------------------------------

Chorus (x2)

Ending Chorus (x2):
E-----------------------0-------------------------------------------
B--------------1--1--1--3-------------------------------------------
G-------------------------------------------------------------------
C--10-10-10-10-10-10-10-10-10-10-10-10-10-10-10-10-9-9-9-9-9-9-9-9--
G--10-10-10-10-10-10-10-10-10-10-10-10-10-10-10-10-9-9-9-9-9-9-9-9--
C--10-10-10-10-10-10-10-10-10-10-10-10-10-10-10-10-9-9-9-9-9-9-9-9--

E------------------12/13-12-12/13-12-12/13-12/13-12/13-12/13-12/13-------------
B------------------------------------------------------------------------------
G------------------------------------------------------------------------------
C--9-9-9-9-9-9-9-9-5-5-5-5-5-5-5-5-5-5-5-5-0-HOLD--5-5-5-5-5-5-5-5-------------
G--9-9-9-9-9-9-9-9-5-5-5-5-5-5-5-5-5-5-5-5-0-HOLD--5-5-5-5-5-5-5-5-------------
C--9-9-9-9-9-9-9-9-5-5-5-5-5-5-5-5-5-5-5-5-0-HOLD--5-5-5-5-5-5-5-5-------------

Ending (x2):
E--------------------------------------------------
B--------------------------------------------------
G--------------------------------------------------
C--2-2-2-0-2--2-2-2-2-0-2--2-2-2-0-2--2-2-2-2-0-2--
G--2-2-2-0-2--2-2-2-2-0-2--2-2-2-0-2--2-2-2-2-0-2--
C--2-2-2-0-2--2-2-2-2-0-2--2-2-2-0-2--2-2-2-2-0-2--

That's it.  Pretty easy song.  Enjoy!

Comments about this tab

kryptoben - 2004-07-03

Very good tab!!!!!! Perfect, thanks


mmggppmgp - 2005-06-15

hey... do u detune the G, B, strings???? since u said drop C... oh yah and the E


110%panhead - 2005-10-05

Drop C is (from high-to-low) D A F C G C


thefish_8me - 2006-01-13

can you use tabs in drop C and use drop D instead? I know it won't sound like the CD, but I've done it on a few songs and it sounded good...


chevelleman - 2006-01-30

No man that really doesnt work good.


PowerChordguy07 - 2006-02-06

You might want to consider looking at ultimate-guitar.com they have the best versoin there


Add a comment/correction

Complimentary Christian Ringtones
Dadamobile and CGR have teamed up to bring your favorite Christian artists right to your phone. Sign up today and get 10 complementary ringtones!
Tab Country
Did you know CGR has a sister site w/ country guitar tabs? Well we do! Its called Tab Country. It has a great archive with a lot of country tabs.
Rockin Tabs
Are you looking for a site that has rock guitar tabs? Then Rockintabs.com is the place for you. It is a budding site with many rock guitar tabs. Submit your tab today.
Tab Gallery
Tab Gallery has a compilation of christian, rock, and country tabs all in one place. Come visit us.