Guitar Tabs
song title    band name

Join Us Today!

Don't strum alone...
be a part of the largest online Christian music community. Browse thousands of guitar tabs and chat w/ musicians like yourself.


It's Free!

Switchfoot - I Dare You To Move

This tab has been rated a 1.67 out of 5 for accuracy. (3 votes)Sorry, but you must be logged in to rate this tab.
Click here to log-in, or you can click here to register.
(Registration is free)

All songs owned by corresponding publishing company. If you make copies of any song on this website, be sure to report your usage to CCLI.
Submitted by: Fast_Fingarz

Artist: Switchfoot
ALbum: Learning to beathe
Song: I Dare you to move

Ive looked at all the other major tabs for this song, tried them out and
still found they all could have been more accurate.  Basically, to be blunt,
I think they're all wrong too far beyond what sounds like the cd.  Anyways,
try this one and SEND ME COMMENTS!  My email is at the bottom of the page and
I need feedback on whats what from other ppl.  Thx.

* - Let note ring
/ - slide up
\ - slide down


INTRO:

Clean (no overdrive), no distortion

E) -0--0-0-0-0----|-------------------------------------------------------------
B) -12-0-9-0-0----|-------------------------------------------------------------
G) -0--9-9-9------|-------------------------------------------------------------
D) ---------------|-------------------------------------------------------------
A) ---------------|-------------------------------------------------------------
E) ---------------|-------------------------------------------------------------
                  x2


VERSE 1:

Clean (no overdrive), no distortion

E) -0--0-0--0-|--0*--0*--|------------------------------------------------------
B) -12-0-0--0-|--0*--0*--|------------------------------------------------------
G) -0--9-11-9-|--11*-9*--|------------------------------------------------------
D) -----------|------11*-|------------------------------------------------------
A) -----------|----------|------------------------------------------------------
E) -----------|----------|------------------------------------------------------
              x2

Play that whole bar twice for the first verse.  So just play the first
section twice then the second section, then the first section twice more
and then the second section again.


CHORUS 1:

Clean (no overdrive), no distortion

This is pretty much the same as the verse but there's a *slight* difference ...

E) -0--0-0--0-|--0-0-0-0-|-0--0-0--0-|--0-0-0-0-|-0--0-0--0-|-------------------
B) -12-0-0--0-|--0-0-0-0-|-12-0-0--0-|--0-0-0-0-|-12-0-0--0-|-------------------
G) -0--9-11-9-|----------|-0--9-11-9-|----------|-0--9-11-9-|-------------------
D) -----------|----------|-----------|----------|-----------|-------------------
A) -----------|----------|-----------|----------|-----------|-------------------
E) -----------|----------|-----------|----------|-----------|-------------------
              x2         x2          x2         x2          x2

I still don't have the timing right on the parts here, but this is pretty
darn close if its not it.  You'll have to listen closely to the CD to get
this just right.  The words on the chorus should end right around the
beginning of the fifth section.


VERSE 2:

Clean (no overdrive), Add fuzzy distortion

E) ---------------------------|---------------------|---------------------------
B) ---------------------------|---------------------|---------------------------
G) ---------------------------|---------------------|---------------------------
D) ---------------------------|---------------------|---------------------------
A) -9/11-11--9/11-11--11-11-9-|--4-4-4/6-6/7-7-7-9--|---------------------------
E) -7/9--9---7/9--9---9--9--7-|--2-2-2/4-4/5-5-5-7--|---------------------------
                              x2                    x2


CHORUS 2:

Clean (no overdrive), Add fuzzy distortion, loud

E) ------------|--------------|-------------------------------------------------
B) ------------|--------------|-------------------------------------------------
G) ------------|--------------|-------------------------------------------------
D) -2*-9*-7*-9-|-2*-9*-7*-11*-|-------------------------------------------------
A) -2*-9*-7*-9-|-2*-9*-7*-11*-|-------------------------------------------------
E) -0*-7*-5*-7-|-0*-7*-5*-9*--|-------------------------------------------------

The timing on these chords is pretty wide so listen to the CD for the changes.


BRIDGE:

Clean (no overdrive), Add fuzzy distortion, not as loud . . . but loud.

E) -------------|---------------------------------------------------------------
B) -------------|---------------------------------------------------------------
G) -------------|---------------------------------------------------------------
D) -2-2-2-7-7-7-|--4*-----------------------------------------------------------
A) -2-2-2-7-7-7-|--4*-----------------------------------------------------------
E) -0-0-0-5-5-5-|--2*-----------------------------------------------------------
                x2


SOLO:

Clean (no overdrive), Add fuzzy distortion

E) -------5-5-5---7-7-7-7s12-|--------------------------------------------------
B) -5-5-5-5-5-5-5-5-5-5-5s10-|--------------------------------------------------
G) --------------------------|--------------------------------------------------
D) --------------------------|--------------------------------------------------
A) --------------------------|--------------------------------------------------
E) --------------------------|--------------------------------------------------


CHORUS 3:

Clean (no overdrive), Add fuzzy distortion

E) ---------------------|----------------------------------|--------------------
B) ---------------------|----------------------------------|--------------------
G) ---------------------|----------------------------------|--------------------
D) -2-2-2-9-9-9-7-7-7-9-|-2-2-2-9-9-9-7-7-7-11-11-7-7-9-2*-|--------------------
A) -2-2-2-9-9-9-7-7-7-9-|-2-2-2-9-9-9-7-7-7-11-11-7-7-9-2*-|--------------------
E) -0-0-0-7-7-7-5-5-5-7-|-0-0-0-7-7-7-5-5-5-11-11-5-5-9-2*-|--------------------

Listen to the CD for these changes becuase I can't describe them on tablature
or whatever.  



Well that's what I came up with.  I need comments!  So please email me with
anything reguarding this tab.  Thanx.

In Christ,
John

Logon: Fast_Fingarz
Joh_Cat@juno.com

Comments about this tab

No comments/corrections found. Add your own

Complimentary Christian Ringtones
Dadamobile and CGR have teamed up to bring your favorite Christian artists right to your phone. Sign up today and get 10 complementary ringtones!
Tab Country
Did you know CGR has a sister site w/ country guitar tabs? Well we do! Its called Tab Country. It has a great archive with a lot of country tabs.
Rockin Tabs
Are you looking for a site that has rock guitar tabs? Then Rockintabs.com is the place for you. It is a budding site with many rock guitar tabs. Submit your tab today.
Tab Gallery
Tab Gallery has a compilation of christian, rock, and country tabs all in one place. Come visit us.