Guitar Tabs
song title    band name

Join Us Today!

Don't strum alone...
be a part of the largest online Christian music community. Browse thousands of guitar tabs and chat w/ musicians like yourself.


It's Free!

Switchfoot - Ammunition

This tab has been rated a 3.00 out of 5 for accuracy. (6 votes)Sorry, but you must be logged in to rate this tab.
Click here to log-in, or you can click here to register.
(Registration is free)

All songs owned by corresponding publishing company. If you make copies of any song on this website, be sure to report your usage to CCLI.
Submitted by: d_fish_ent_man

Switchfoot
Ammunition
The Beautiful Letdown
(c) 2003 Sony Music Entertainment, Inc.

TABBED BY: PHIL "Philbert" Wildhirt
questions & comments 


 ::Other verions on here are only chords, and i feel tablature is needed for
      better and complete understanding.

 ::it might seem like there are some different transtions, but the song just
      fumps from riff to riff.


INTRODUCTION  -  repeated several times
     B/E Bb/E D#/E
 e |---------------|
 b |---------------|
 g |--4----3--/8---|
 d |--x----x---x---|
 a |--2----1--/6---|
 E |--0----0---0---|

=============================
VERSE
      A       G#  F#     A       G#
 e |------------------|----------------------|
 b |------------------|----------------------|
 g |--14--x-x-13--11--|--14--x-x-13-x-x-x-x--|
 d |--x---x-x-x---x---|--x---x-x-x--x-x-x-x--|
 a |--12--x-x-11--9---|--12--x-x-11-x-x-x-x--|
 E |------------------|----------------------|

 Intro riff x2

 Verse riff x1

 Intro riff x2

==============================
CHORUS
     B C# B C# A    E  F#/C#     B C# B C# A    E   F# 
 e |---------------------------|---------------------------|
 b |---------------------------|---------------------------|
 g |--x-xx-x-x-x----x----x-----|--x-xx-x-x-x----x----------|
 d |--4/66\4/6-2----7----4-----|--4/66\4/6-2----7----x-----|
 a |--2/44\2/4-0----5----4-----|--2/44\2/4-0----5----4-----|
 E |---------------------------|---------------------2-----|

      B C# B C# A    E  F#        A   B    A/C# B/D#  A    B
 e |---------------------------|-------------------------------------|
 b |---------------------------|-------------------------------------|
 g |--x-xx-x-x-x----x----------|-------------------------------------|
 d |--4/66\4/6-2----7----x-----|--x----x----x----x----x----x-x-x-x-x-|
 a |--2/44\2/4-0----5----4-----|--7----9----7----9----7----9-x-x-x-x-|
 E |---------------------2-----|--5----7----5----7----5----7-x-x-x-x-|

==============================
INTRO x2

==============================
VERSE

==============================
CHORUS

==============================
INTRO x2

==============================
BRIDGE
      G    A
 e |------------        |
 b |------------        |
 g |------------ Intro  | x2
 d |------------ riff   |
 a |--5----7----  x2    |
 E |--3----5----        |

      G    A    G    A    G    A
 e |--------------------------------        |
 b |--------------------------------        |
 g |-------------------------------- Intro  |
 d |--x----x----x----x----x----x---- riff   |
 a |--5----7----5----7----5----7----  x4    |
 E |--3----5----3----5----3----5----        |

=============================
CHORUS

=============================
INTRO  x1

=============================
TAG

play the last bar of the chorus (not really any transition)

=============================
INTRO x2

ends on the 4th beat (doesn't resolve the chord progression)

Comments about this tab

sack - 2004-06-21

Minor note:

In this wonderful Intro/Verse tab (yeah, yeah), When it gets cosiderably louder on the intro and for the verses they add notes on the one and two strings, like so:

e |--0----0-------|
b |-----------9---|
g |--4----3--/8---|
d |--x----x---x---|
a |--2----1--/6---|
E |--0----0---0---|

If you play this tab the first way with your pointer and ring fingers, then slipping your pinky in for that 9(Ab) on the B string should be fairly easy.

That's all folks. God bless you. goodnight.

Will

PS- Good morning or afternoon for all those people who don't only go on the internet at night like me.


GENERATIONSLTC - 2004-06-29

OCTAVES!!!!!!???????? what!?! the intro is not octaves, it's:
d---9-9-9-9---7-7--11-11---
a---9-9-9-9---7-7--11-11---
e---7-7-7-7---5-5---9--9---reapet a couple of times


camelback91 - 2004-08-14

Sorry but I think it is. . .
G---------------8888--------
D---9-9999-88---8888--------
A---9-9999-88---6666--------
E---7-7777-66---------------. . .listen to the song i think i messed up on the strumming though


GENERATIONSLTC - 2004-08-14

camel go out and buy the dvd (unless u already have it) and watch ammunition and unless u r blind u will see i am right


guitarguy1020 - 2004-10-30

I think the verse is is...


G|-14-14-14-14--12-12-12-12--11-11-11--| |-14-14-14-14--12-12---|
D|-x--x--x--x---x--x--x--x---x-x-x-x---| |-x--x--x--x---x--x----|
A|-12-12-12-12--10-10-10-10--9-9-9-9---|Intro part then|-12-12-12-12--10-10---|
E|-------------------------------------| |----------------------|


guitarguy1020 - 2004-10-30

I think the verse is is...sry i messed up the first time


G|-14-14-14-14--12-12-12-12--11-11-11--| |-14-14-14-14--12-12---|
D|-x--x--x--x---x--x--x--x---x-x-x-x---| |-x--x--x--x---x--x----|
A|-12-12-12-12--10-10-10-10--9-9-9-9---|Intro part then|-12-12-12-12--10-10---|
E|-------------------------------------| |----------------------|


guitarguy1020 - 2004-10-30

i definitly have it now
G|-14-14-14-14--12-12-12-12--11-11-11--|
D|-x--x--x--x---x--x--x--x---x-x-x-x---|
A|-12-12-12-12--10-10-10-10--9-9-9-9---|After intro part then...
E|-------------------------------------|

G|-14-14-14-14--12-12---|
D|-x--x--x--x---x--x----|
A|-12-12-12-12--10-10---|
E|----------------------|


rock4christ08 - 2005-01-16

JUST F.Y.I. everything works alot easier in this song when it's in Drop D.
ex: the chorus:
E---------------------------------------
B---------------------------------------
G---------------------------------------
D--9h11-11p9--11--7-7-7-7-7/14-14/4-4---
A--9h11-11p9--11--7-7-7-7-7/14-14/4-4---
D--9h11-11p9--11--7-7-7-7-7/14-14/4-4--- i listened to the song to match, and this is the closest sounding way to play it that i can come up with.
Just concerned, ray


Add a comment/correction

Complimentary Christian Ringtones
Dadamobile and CGR have teamed up to bring your favorite Christian artists right to your phone. Sign up today and get 10 complementary ringtones!
Tab Country
Did you know CGR has a sister site w/ country guitar tabs? Well we do! Its called Tab Country. It has a great archive with a lot of country tabs.
Rockin Tabs
Are you looking for a site that has rock guitar tabs? Then Rockintabs.com is the place for you. It is a budding site with many rock guitar tabs. Submit your tab today.
Tab Gallery
Tab Gallery has a compilation of christian, rock, and country tabs all in one place. Come visit us.