Guitar Tabs
song title    band name

Join Us Today!

Don't strum alone...
be a part of the largest online Christian music community. Browse thousands of guitar tabs and chat w/ musicians like yourself.


It's Free!

Switchfoot - Adding To The Noise

This tab has been rated a 3.45 out of 5 for accuracy. (11 votes)Sorry, but you must be logged in to rate this tab.
Click here to log-in, or you can click here to register.
(Registration is free)

All songs owned by corresponding publishing company. If you make copies of any song on this website, be sure to report your usage to CCLI.
Song: Adding to the Noise
Artist: Switchfoot
Album: The Beautiful Letdown
Tabbed by: Ian Webster (mynameisian50@hotmail.com)


Intro (play the with Barre Chords and Distortion) :
     
          AD A B A B A B A x6  and then at the end play: Bb Ab

Verse (play these chords palm muted) :
          D G

Pre-Chorus:(strum these chor$s each nce) E &# G (i $hink)

Chorus: (same as intro)

Bri$ge: (St"um these chords) D G x5  then play A

zThen pl!y chorus 

   and there u go
        it might be a bit wrong, so if u spot any wrong bits e-mail me.
                           bye

Comments about this tab

carsonh76 - 2004-10-08

this is wrong here is the right way

----------------------------------------
----------------------------------------
--5--7----------------------------------
--5--7--7--9999999----------------------
--3--5--7--9999999----------------------
--------5--7777777----------------------


carsonh76 - 2004-10-08

sorry, you play the ------------


carsonh76 - 2004-10-08

sorry, you play the ------------ and the -------------- twice!!!!!!!
------------ --------------
----7------- --------------
----7------- -----7--------
----5------- -----7--------
------------ -----5--------


Stratcat95 - 2004-10-25

sorry but I think that the intro goes in power chords and more like this:

-------------------------------------------------------
-------------------------------------------------------
--------7---7------------------------------------------
----7---7---7---7---7---7---9---9---9---7---9---7------
----7---5---5---7---7---7---9---9---9---7---9---7------
----5-----------5---5---5---7---7---7---5---7---5------ then repeat. Sorry it might be wrong but it just kinda sounds like it! :)


Beyer413 - 2005-01-09

For the intro I use barre chords:

B Gb Ab Gb Ab Gb Ab

It sounds right to me.


theophilus502 - 2005-10-28

Sorry, Beyer413, but power chords sound better w/ distortion.


hihihisteel9 - 2005-10-29

><> ??????????????????????


wannabeerocker - 2005-12-30

i think it goes like this with distortion
----------------------------------------
----------------------------------------
----------------------------------------
---9-9----------------------------------
-9-7-7-9-9-11-11-11-11-11---------------
-7-----7-7--9--9--9--9--9---------------


GOD ROCKS!!!!!!!!!!!!!!!!!!!!!!!


Add a comment/correction

Complimentary Christian Ringtones
Dadamobile and CGR have teamed up to bring your favorite Christian artists right to your phone. Sign up today and get 10 complementary ringtones!
Tab Country
Did you know CGR has a sister site w/ country guitar tabs? Well we do! Its called Tab Country. It has a great archive with a lot of country tabs.
Rockin Tabs
Are you looking for a site that has rock guitar tabs? Then Rockintabs.com is the place for you. It is a budding site with many rock guitar tabs. Submit your tab today.
Tab Gallery
Tab Gallery has a compilation of christian, rock, and country tabs all in one place. Come visit us.