Bass Tabs
(THIRD DAY) OR BY ARTIST NAME (JENNIFER KNAPP)
0-9|A|B|C|D|E|F|G|H|I|J|K|L|M|N|O|P|Q|R|S|T|U|V|W|X|Y|Z

Join Us Today!

Don't strum alone...
be a part of the largest online Christian music community. Browse thousands of guitar tabs and chat w/ musicians like yourself.


It's Free!

This tab has not yet been rated for accuracy.Sorry, but you must be logged in to rate this tab.
Click here to log-in, or you can click here to register.
(Registration is free)

All songs owned by Integrity and Brentwood-Benson are used by permission. If you make copies of any song on this website, be sure to report your usage to CCLI.
Song: Wife Beaters
Artist: Officer Negative
Album: Dead to the World
Copyright: 1998 Screaming Giant Records
Submitted by: Andrew (Talon1203@aol.com)
Find other cool stuff @ my site: http://www.angelfire.com/dc/109


G:---------------------------------------------------------------------
D:--2------------------------------------------------------------------
A:-----3---------------------------------------------------------------
E:--------3--5---------------------------------------------------------
End with D:--222--

I believe that this is all there is to it. Just keep on repeating all this
at different speeds and listen to the CD for timing.

Comments about this tab

guitardude416 - 2004-04-27

the intro is actually (drop d)
:
:
A------------------------------------
E-0-0-0-0--7-7-7-7--8-8-8-8--7-7-7-7-


JamesOsborn - 2004-07-17

The tab sounds OK, but the solo tab at the end basically goes like this:
(drop D)
-----------------------------------------------------
-10/11-10-----10/11-10----10/11-10-------------------
------------------------------------------12---------
----------12-----------12-----------10-10/-----------
-----------------------------------------------------
-----------------------------------------------------
I think it's repeated 3 times total. There is a funky little part after you've played that twice, but it gets lost in the music so just go back to the chorus until you get to the 3rd repeat of this tab


Dark Tofu - 2005-06-28

GuitarDude that intro is all
bass there is no guitar that
goes
-000-777-888-777
that is the bass


darkturd - 2006-08-24

"dark tofu" the bass is 000-7777-8888-7777


Add a comment/correction

Complimentary Christian Ringtones
Dadamobile and CGR have teamed up to bring your favorite Christian artists right to your phone. Sign up today and get 10 complementary ringtones!
Tab Country
Did you know CGR has a sister site w/ country guitar tabs? Well we do! Its called Tab Country. It has a great archive with a lot of country tabs.
Rockin Tabs
Are you looking for a site that has rock guitar tabs? Then Rockintabs.com is the place for you. It is a budding site with many rock guitar tabs. Submit your tab today.
Tab Gallery
Tab Gallery has a compilation of christian, rock, and country tabs all in one place. Come visit us.