Bass Tabs
(THIRD DAY) OR BY ARTIST NAME (JENNIFER KNAPP)
0-9|A|B|C|D|E|F|G|H|I|J|K|L|M|N|O|P|Q|R|S|T|U|V|W|X|Y|Z

Join Us Today!

Don't strum alone...
be a part of the largest online Christian music community. Browse thousands of guitar tabs and chat w/ musicians like yourself.


It's Free!

This tab has not yet been rated for accuracy.Sorry, but you must be logged in to rate this tab.
Click here to log-in, or you can click here to register.
(Registration is free)

All songs owned by Integrity and Brentwood-Benson are used by permission. If you make copies of any song on this website, be sure to report your usage to CCLI.
Song: Us and Them
Artist: Officer Negative
Album: Dead to the World
Copyright: 1998 Screaming Giant Records
Submitted by: Andrew (Talon1203@aol.com)
Find other cool stuff @ my site: http://www.angelfire.com/dc/109


G:---------------------------------------------------------------------
D:---------1-----------------------------------------------------------
A:--3--1-----3---------------------------------------------------------
E:---------------------------------------------------------------------

My personal favorite. If I was allowed to post the lyrics here, I would.
Great song and easy to play.

Enjoy!

Comments about this tab

guitardude416 - 2004-08-07

use this:

drop D

D--0-0-0-0-7-7-7-7-8-8-8-8-7-7-7-7- x7 then
|- bend 1/4 step -|
D--0-0-0-0-7-7-7-7-7-7-7-7-7-7-7-7-

then

e--3-3--0-0------
B--3-3--3-3--2-2- x3
G--0-0--2-2--2-2-
D--0-0--0-0--0-0-
for the "but I can see you coming..."

chorus:

G--7-7-7--9-9-9-9--5-5-5-5-
D--X-X-X--X-X-X-X--X-X-X-X-
A--5-5-5--7-7-7-7--3-3-3-3-
E--------------------------

i'll get the solo later but my mom is gettin mad


Bernardvw - 2005-05-14

It is much easier to swop some Bb with a F. As in inexperienced player I chosse the F. And it sounds right


Bernardvw - 2005-05-16

At the bridge, play d minor instead of D major. It sounds much better


afroman362 - 2005-05-27

hey dude i used this tab with the song and it was perfect good job


Dark Tofu - 2005-06-28

The solo is
E---------------------------------------------------
B-10h11p10----10h11p10----10h11p10------------------
G-------------------------------------12-12-12-12-12
D----------12----------12----------10---------------


balrog_SK - 2005-08-17

gosh you people like the guy who wrote the tab in the first place, man this a TAB none of that chord crap now I'm gonna give it a 1 no 5 u loser!


balrog_SK - 2005-08-17

hahahahahahhahahahaha im gonna make 10 guys to have this song have a 0.0 muhahahahhahahahahhahahahahahahahaahhahahhh bwahahahhahahahahahahahhahahhahahah
teeheehee wait....... muhahahahhahahahahahahahahahahahahahahahaha


Michael4536 - 2005-09-25

hey guys really good job, i love the song and it seems to be pretty precise so i give it a 5 out of 5. Good job guys.


Mtaitfan-13 - 2006-05-10

Balrog your so retarted, but that doctor evil laugh is catchy!!! hehe


Add a comment/correction

Complimentary Christian Ringtones
Dadamobile and CGR have teamed up to bring your favorite Christian artists right to your phone. Sign up today and get 10 complementary ringtones!
Tab Country
Did you know CGR has a sister site w/ country guitar tabs? Well we do! Its called Tab Country. It has a great archive with a lot of country tabs.
Rockin Tabs
Are you looking for a site that has rock guitar tabs? Then Rockintabs.com is the place for you. It is a budding site with many rock guitar tabs. Submit your tab today.
Tab Gallery
Tab Gallery has a compilation of christian, rock, and country tabs all in one place. Come visit us.