Bass Tabs
(THIRD DAY) OR BY ARTIST NAME (JENNIFER KNAPP)
0-9|A|B|C|D|E|F|G|H|I|J|K|L|M|N|O|P|Q|R|S|T|U|V|W|X|Y|Z

Join Us Today!

Don't strum alone...
be a part of the largest online Christian music community. Browse thousands of guitar tabs and chat w/ musicians like yourself.


It's Free!

DC Talk - My Friend (So Long)

This tab has been rated a 5.00 out of 5 for accuracy. (2 votes)Sorry, but you must be logged in to rate this tab.
Click here to log-in, or you can click here to register.
(Registration is free)

All songs owned by Integrity and Brentwood-Benson are used by permission. If you make copies of any song on this website, be sure to report your usage to CCLI.
BAnd  ::DC Talk::
SOng  ::My Friend (So long)::
	::BAas::
KEys  ::"s"=slide, "{"=slap, "h"=hamer on/pull off, "~"vibrato::

Tab by ::Irving Alan Pérez Lara::
Doubts? ::bass_slash@hotmail.com::

::INtro:: *Only GUitar*

::VErse::  *The FIrts and SEcond VErse Only the ACustic GUitar*

::VErse::                            01 TIme 
    :E: :Ab:  :D:  :G:  :C:  :F#: :A:  :C:
G] :---:----:-----:----:----:----:----:----:
D] :---:----:-----:----:----:----:----:----:
A] :---:----:-----:----:----:----:----:----:
E] :-0-:-s4-:-s10-:-s3-:-s8-:-s2-:-s5-:-s8-:

::PReCHorus::                 02 TImes
G]:----------------------------------:
D]:----------------------------------:
A]:----------------------------------:
E]:-7-7-7-7-7-7-7-7-s3-3-3-3-3-3-3-3-:

G]:-------------------------------------------------:
D]:-------------------------------------------------:
A]:-3-3-3-2-2-2-0-0-0-------------------------------:
E]:-------------------3-3-3-3-14s-2-2-2-2-2-2-2-2-2-:

::CHorus::
G]:---------------------:-------:
D]:-0-0-0-0---0---------:-------:
A]:---------0---0-2-0-2-:-0-2-3-:
E]:---------------------:-------:

G]:---------------------:------------------------------------:
D]:-0-0-0-0---0---------:------------------------------------:
A]:---------0---0-2-0-2-:-0-2-3-s7-7-7-7-7-7-7-0-0-0-0-0-0-0-:
E]:---------------------:------------------------------------:

G]:---------------------:-------:
D]:-0-0-0-0---0---------:-------:
A]:---------0---0-2-0-2-:-0-2-3-:
E]:---------------------:-------:

G]:---------------------:-------------------------------------:
D]:-0-0-0-0-3-0---------:-------------------------------------:
A]:-------------0-2-0-2-:-0-2-3-------------------------------:
E]:---------------------:-------3-3-3-3-3-3-0-2-2-2-2-2-2-0-1-:

::SOlo::      02 TImes
    :E: :Ab:  :D:  :G:  :C:  :F#: :A:  :C:
G] :---:----:-----:----:----:----:----:----:
D] :---:----:-----:----:----:----:----:----:
A] :---:----:-----:----:----:----:----:----:
E] :-0-:-s4-:-s10-:-s3-:-s8-:-s2-:-s5-:-s8-:
    ___________
 __/ ::ORder:: \___
/                  
| ::INtro::        |
| ::VEre::         |
| ::CHorus::       |
| ::VEre::         |
| ::COro::         |
| ::BRidge::       |
| ::SOlo::         |
| ::COro::         |
\__________________/

Comments about this tab

EriK Kooijman - 2004-12-31

I think it sounds better when you change the B (trough the whole song) into a Bm. It's a good and usefull tab!!


musicmatt112590 - 2005-03-17

The E in the chorus should be an Em


musicmatt112590 - 2005-03-17

The chords on the bridge are
Em A Em
Don't think we don't miss you, we think about you every day
A Em
We still love you anyway, cause love don't go away
A
But there's still this burning question, I've got to know
C
Whyyyyyyyy?

Of course, it's only like, keyboard, but I just though I'd say that anyways.
Awesome song!! Love it!!


Bernardvw - 2005-05-14

Yea. Being a new member, this is my first song with words and chords.Offcourse I like it!!!!!!!!!!!!!!!!!!!!!!!!!!!


Bernardvw - 2005-06-01

in the chorus, switch E with em


aguitarcalled.. - 2005-07-26

hey you great tab just switch e with the em and it is almost perfect great job


aero! - 2005-12-15

Ab? Sorry, but I think it's just A. And E for the chorus is correct--not E minor. It's really tacky.


Add a comment/correction

Complimentary Christian Ringtones
Dadamobile and CGR have teamed up to bring your favorite Christian artists right to your phone. Sign up today and get 10 complementary ringtones!
Tab Country
Did you know CGR has a sister site w/ country guitar tabs? Well we do! Its called Tab Country. It has a great archive with a lot of country tabs.
Rockin Tabs
Are you looking for a site that has rock guitar tabs? Then Rockintabs.com is the place for you. It is a budding site with many rock guitar tabs. Submit your tab today.
Tab Gallery
Tab Gallery has a compilation of christian, rock, and country tabs all in one place. Come visit us.