Bass Tabs
(THIRD DAY) OR BY ARTIST NAME (JENNIFER KNAPP)
0-9|A|B|C|D|E|F|G|H|I|J|K|L|M|N|O|P|Q|R|S|T|U|V|W|X|Y|Z

Join Us Today!

Don't strum alone...
be a part of the largest online Christian music community. Browse thousands of guitar tabs and chat w/ musicians like yourself.


It's Free!

Skillet - Rest

This tab has been rated a 1.00 out of 5 for accuracy. (1 vote)Sorry, but you must be logged in to rate this tab.
Click here to log-in, or you can click here to register.
(Registration is free)

All songs owned by Integrity and Brentwood-Benson are used by permission. If you make copies of any song on this website, be sure to report your usage to CCLI.
I made this song a bit easier for yall to understand.   =D

Skillet - Rest
Album - Invincible
Tuning - Normal

Verse-
G|------------|
D|-0----------|
A|-----2------|
E|--------3-3-|

Chorus-
G|------------------------|
D|-0-0--------------------|
A|------0-0--0-0--0-0-0-0-|
E|------------------------|

Bridge-
G|---------------------------------|    |----------------------|
D|---------0-0-0-0-----------------|    |------------------4-0-|
A|-----------------2-2-2-2-0-0-0-0-|    |----------------------|
E|-3-3-3-3-------------------------| 3x |-333333333333333------|

Any questions, comments, or concerns?
E-mail me at Jesusfreak1181@juno.com

Comments about this tab

Littlekid - 2004-05-13

well, this only sounds good on electric, but you could also play the intro for the chorus if u want......ok....that's all i got for this one


frozen_flame - 2004-05-25

I find that it sounds better and is easier to play this way

e|------------------------------------|
B|---7--7--7--7--7--------------------|
G|---7--7--7--7--7-7h9-9-11-7--7--|
D|---0--0--0--0--0-7----7--9---5--5--|
A|------------------------------------|
E|------------------------------------|

e|------------------------------------|
B|---7--7--7--7--7--------------------|
G|---7--7--7--7--7-7h99-9--7--7----|
D|---0--0--0--0--0-7---7-7--5-5----|
A|------------------------------------|
E|------------------------------------|


chickachonk - 2004-11-22

dont u guyz get tired of backing up the song to here it right? well anyways
good job on the song sounds great


Neverestcgr - 2004-12-19

Shouldn't the 7h9 be 9r7?


GLO28 - 2005-01-04

hey, shouldn't the chords to the chorus be D, A, and Bm instead of D A and G...I dunno,correct if i'm wrong


mcjsfreak - 2005-01-05

I agree; I think the D, A, G should be D, A, Bm.


mcksk8hawk - 2005-01-20

ok tab


7thDayBassman - 2005-02-28

personally the chorus sounds best as D-A-Bm-G


n0oneiMportaNt - 2005-03-03

hey that was rad. good on ya mate


allstar11 - 2005-05-19

yeah i like the D-A-G Bm too... sweet and the tab by the comment up a ways is better too.. good job though I love this song


Asa Gaston - 2006-06-14

bravo


Add a comment/correction

Complimentary Christian Ringtones
Dadamobile and CGR have teamed up to bring your favorite Christian artists right to your phone. Sign up today and get 10 complementary ringtones!
Tab Country
Did you know CGR has a sister site w/ country guitar tabs? Well we do! Its called Tab Country. It has a great archive with a lot of country tabs.
Rockin Tabs
Are you looking for a site that has rock guitar tabs? Then Rockintabs.com is the place for you. It is a budding site with many rock guitar tabs. Submit your tab today.
Tab Gallery
Tab Gallery has a compilation of christian, rock, and country tabs all in one place. Come visit us.