Bass Tabs
(THIRD DAY) OR BY ARTIST NAME (JENNIFER KNAPP)
0-9|A|B|C|D|E|F|G|H|I|J|K|L|M|N|O|P|Q|R|S|T|U|V|W|X|Y|Z

Join Us Today!

Don't strum alone...
be a part of the largest online Christian music community. Browse thousands of guitar tabs and chat w/ musicians like yourself.


It's Free!

Delirious - Fire

This tab has been rated a 2.00 out of 5 for accuracy. (1 vote)Sorry, but you must be logged in to rate this tab.
Click here to log-in, or you can click here to register.
(Registration is free)

All songs owned by Integrity and Brentwood-Benson are used by permission. If you make copies of any song on this website, be sure to report your usage to CCLI.
Song:		Fire
Artist:		Delirious?
Album:		Audio Lessonover (FURYCD4)
Author:		Stewart Garrard/Martin Smith  Curious? Music 2001
Tabbed by David Garrett sanctify98@hotmail.com [BTB003]

Info:

Listen to the CD for the timings which are difficult to master at first,
watch out for the change in speed in the intro. Fuzz Distortion used
through the chorus. The chorus timings are the same as the intro which
is played by the electric guitar.
 
Intro:

G |----------------|---------------|---------------|---------------|
D |----------------|---------------|---------------|---------------|
A |----------------|---------------|---------------|---------------|
E |----------------|---------------|---------------|---------------|

Verse 1:

G |-------------------------|-------------------------|
D |-------------------------|-------------------------|
A |----------6--7--0--------|-----------6--7--0-------|     x8 
E |-0--0--------------7-----|--0--0--------------7----|

G |-------------------------|-------------------------|
D |-------------------------|-------------------------|
A |-------------------------|-------------------------|
E |-3--3--3--3--3--3--3--3--|--1--1--1--1--1--1--1--1-|

G |-------------------------|
D |-------------------------|
A |-------------------------|
E |-0--0--0--0--0--0--0--0--|

G |-------------------------|-------------------------|
D |-------------------------|-------------------------|
A |----------6--7--0--------|-----------6--7--0-------|     x8
E |-0--0--------------7-----|--0--0--------------7----|

G |-------------------------|-------------------------|
D |-------------------------|-------------------------|
A |-------------------------|-------------------------|
E |-3--3--3--3--3--3--3--3--|--1--1--1--1--1--1--1--1-|

G |-------------------------|
D |-------------------------|
A |-------------------------|
E |-0--0--0--0--0--0--0--0--|

Bridge:

G |-----------|------------|------------|
D |-----------|------------|------------|
A |-----------|------------|------------|
E |-5---------|--3---------|--1---------|


  {==========FILL===========}
G |-------------------------|-----------|-----------|-----------|
D |-------6--8--6-----------|-----------|-----------|-----------|
A |----7-----------7--6-----|-----------|-----------|-----------|
E |-0--------------------6--|--5--------|--3--------|--1--------|
Chorus:

G |-------------------|-------------------|
D |-0h2-2-2-2---------|-0h2-2-2-2---------|
A |----------300-0-0--|----------30-------|     x4
E |-------------------|------------3-3-3--|

Verse 2:

G |-------------------------|-------------------------|
D |-------------------------|-------------------------|
A |----------6--7--0--------|-----------6--7--0-------|     x4 
E |-0--0--------------7-----|--0--0--------------7----|

G |-------------------------|-------------------------|
D |-------------------------|-------------------------|
A |-------------------------|-------------------------|
E |-3--3--3--3--3--3--3--3--|--1--1--1--1--1--1--1--1-|

G |-------------------------|
D |-------------------------|
A |-------------------------|
E |-0--0--0--0--0--0--0--0--|

Chorus:

G |-------------------|-------------------|
D |-0h2-2-2-2---------|-0h2-2-2-2---------|
A |----------300-0-0--|----------30-------|     x11
E |-------------------|------------3-3-3--|

Outro

G |-------------------|-------------------|
D |-0h2-2-2-2---------|-0h2-2-2-2---------|
A |----------300-0-0--|----------30-------|     
E |-------------------|------------33-1---|

Play Order

Intro
Verse 1			
Bridge
Chorus			(x4)
Verse 2			
Bridge
Chorus			(x11)
Outro			

David Garrett - 19/04/2002

Comments about this tab

No comments/corrections found. Add your own

Complimentary Christian Ringtones
Dadamobile and CGR have teamed up to bring your favorite Christian artists right to your phone. Sign up today and get 10 complementary ringtones!
Tab Country
Did you know CGR has a sister site w/ country guitar tabs? Well we do! Its called Tab Country. It has a great archive with a lot of country tabs.
Rockin Tabs
Are you looking for a site that has rock guitar tabs? Then Rockintabs.com is the place for you. It is a budding site with many rock guitar tabs. Submit your tab today.
Tab Gallery
Tab Gallery has a compilation of christian, rock, and country tabs all in one place. Come visit us.