Bass Tabs
(THIRD DAY) OR BY ARTIST NAME (JENNIFER KNAPP)
0-9|A|B|C|D|E|F|G|H|I|J|K|L|M|N|O|P|Q|R|S|T|U|V|W|X|Y|Z

Join Us Today!

Don't strum alone...
be a part of the largest online Christian music community. Browse thousands of guitar tabs and chat w/ musicians like yourself.


It's Free!

P.O.D. - Southtown

This tab has been rated a 4.00 out of 5 for accuracy. (2 votes)Sorry, but you must be logged in to rate this tab.
Click here to log-in, or you can click here to register.
(Registration is free)

All songs owned by Integrity and Brentwood-Benson are used by permission. If you make copies of any song on this website, be sure to report your usage to CCLI.
Southtown
P.O.D.

Drop D tuning.
i habent seen a correct version out there yet.
this is the way me and my band play it but it is pretty much the same

INTRO
G-2-2-2-2------------------2-2-2-2------------------
D--------3(repeat 12 times)-------0(repeat 12 times)
A---------------------------------------------------
D---------------------------------------------------

VERSE U can also play open a instead of 7
G---------------------------------------------------
D---------------------------------------------------
A---------------------------------------------------
D-7---333--333--777---000-00------------------------

Part right after Verse
G--------------0----
D-----3-2---0-------
A-0--------------0--
D------------------0

CHORUS
G---------------------
D---------------------
A---------------------
D-3-3--3-3----0-0--0-0


Bridge
G-----------------
D-----------------
A-----------------
D-0-2-3-XX--------

ok there are all the parts that u need. play them when they are needed.
listen to the song to see where to play. this is tab is right. u will
need a volume pedal for the kick. if u cant get one. turn the intro
into a bass solo and only play it twice. it sounds nice that way. if
u got any questions e-mail me at slimytoad87@hotmail.com
this is a real easy song to play

Joe Greenwood

Comments about this tab

No comments/corrections found. Add your own

Complimentary Christian Ringtones
Dadamobile and CGR have teamed up to bring your favorite Christian artists right to your phone. Sign up today and get 10 complementary ringtones!
Tab Country
Did you know CGR has a sister site w/ country guitar tabs? Well we do! Its called Tab Country. It has a great archive with a lot of country tabs.
Rockin Tabs
Are you looking for a site that has rock guitar tabs? Then Rockintabs.com is the place for you. It is a budding site with many rock guitar tabs. Submit your tab today.
Tab Gallery
Tab Gallery has a compilation of christian, rock, and country tabs all in one place. Come visit us.