Bass Tabs
(THIRD DAY) OR BY ARTIST NAME (JENNIFER KNAPP)
0-9|A|B|C|D|E|F|G|H|I|J|K|L|M|N|O|P|Q|R|S|T|U|V|W|X|Y|Z

Join Us Today!

Don't strum alone...
be a part of the largest online Christian music community. Browse thousands of guitar tabs and chat w/ musicians like yourself.


It's Free!

MxPx - Move to Bremerton

This tab has been rated a 5.00 out of 5 for accuracy. (1 vote)Sorry, but you must be logged in to rate this tab.
Click here to log-in, or you can click here to register.
(Registration is free)

All songs owned by Integrity and Brentwood-Benson are used by permission. If you make copies of any song on this website, be sure to report your usage to CCLI.
Move to Bremerton
MXPX
Life in General
Tabbed by jonathon        jhammonds53@hotmail.com

****listen to the cd for the rhythms since i didnt feel like typin them out****

hit this note at the begining and let it ring:
A---5---

Verse:
G-------------------------------------------------------------------
D-------------------------------------------------------------------
A-5-5-5-5-5-5-5-5---------------------------------------------------
E-----------------3-3-3-3-3-3-3-7-7-7-7-7-7-7-7-5-5-5-5-5-5-5-5-----

Chorus:
G-------------------------------------------------------------------
D-------------------------------------------------------------------
A-----------------5-5-5-5-5-5-5-5-----------------------------------
E-3-3-3-3-3-3-3-3-----------------7-7-7-7-7-7-7-7-5-5-5-5-5-5-5-5---

Pre-Chorus:
G-------------------------------------------------------------------
D-------------------------------------------------------------------
A-------------------------------------------------------------------
E-3-3-3-3-3-3-3-3-7-7-7-7-7-7-7-7-6-6-6-6-6-6-6-6-6-5-5-5-5-5-5-5-5-

play this about 4 or 5 times during the last verse.
G-------------- 
D--------------
A-5------------
E---3-2-0-3-2--


this is a good song by a very good band. plz email for any corrections.

Comments about this tab

No comments/corrections found. Add your own

Complimentary Christian Ringtones
Dadamobile and CGR have teamed up to bring your favorite Christian artists right to your phone. Sign up today and get 10 complementary ringtones!
Tab Country
Did you know CGR has a sister site w/ country guitar tabs? Well we do! Its called Tab Country. It has a great archive with a lot of country tabs.
Rockin Tabs
Are you looking for a site that has rock guitar tabs? Then Rockintabs.com is the place for you. It is a budding site with many rock guitar tabs. Submit your tab today.
Tab Gallery
Tab Gallery has a compilation of christian, rock, and country tabs all in one place. Come visit us.