Bass Tabs
(THIRD DAY) OR BY ARTIST NAME (JENNIFER KNAPP)
0-9|A|B|C|D|E|F|G|H|I|J|K|L|M|N|O|P|Q|R|S|T|U|V|W|X|Y|Z

Join Us Today!

Don't strum alone...
be a part of the largest online Christian music community. Browse thousands of guitar tabs and chat w/ musicians like yourself.


It's Free!

Five Iron Frenzy - Far, Far Away

This tab has not yet been rated for accuracy.Sorry, but you must be logged in to rate this tab.
Click here to log-in, or you can click here to register.
(Registration is free)

All songs owned by Integrity and Brentwood-Benson are used by permission. If you make copies of any song on this website, be sure to report your usage to CCLI.
title: Far, Far Away
artist: FIF
album: FIF2: Electric Boogaloo
tabbed by: Gloria (the_insane_protagonist@yahoo.com)


(Note: on the cd he's using some distortion and also playing several notes
really fast in a pattern that's really messy to try and write into the tab.
This is the basic pattern, though.
Just consider it a "slowed down" version.)


Verse 1+2:  (A)                                  (B)
D---------------------3---------    -----------------------------
A------3---5---3----5---5-3---3- 2x ----5---8---5----7-8-7-5---5- 2x 
E-5-55---5---5---5----------5---    -66---6---6---6----------6---

Play A, B, A, B, A, then:

A------5---8---5----7-8-7-5---5--1111-00----|
E-6-66---6---6---6----------6------------33-|

Chorus:

D-33-3-3-3----------------------------------|
A----------11-1-1-1-----------33-3-3-333333-|
E--------------------33-3-3-3---------------|

Bridge 1:
("I know that someday soon...")
D-3-3--2-2------------------------------|
A----------5-5--3-3--1-1--3-3--1-1--5-3-| 2x
E---------------------------------------|


Verse 3:
(And the wordless part after bridge 1)


A------3---5-3---3---33- 2x ------5----8-7---5---55-
E-5-55---5-----5---5----    -6-66---6------6---6----

(etc.)

Bridge 2:

D-33-22------------------33-22-------------2-3-|
A-------55-33-1-3-1-5-3--------55-33-1-3-5-----|

D-3-
  =the end. 

Um, yeah. This should be fairly close, if not, adjust it to your own interperetation 
and tell me what I did wrong. 

http://untitled.keenspace.com
~Gloria~

Comments about this tab

No comments/corrections found. Add your own

Complimentary Christian Ringtones
Dadamobile and CGR have teamed up to bring your favorite Christian artists right to your phone. Sign up today and get 10 complementary ringtones!
Tab Country
Did you know CGR has a sister site w/ country guitar tabs? Well we do! Its called Tab Country. It has a great archive with a lot of country tabs.
Rockin Tabs
Are you looking for a site that has rock guitar tabs? Then Rockintabs.com is the place for you. It is a budding site with many rock guitar tabs. Submit your tab today.
Tab Gallery
Tab Gallery has a compilation of christian, rock, and country tabs all in one place. Come visit us.