Bass Tabs
(THIRD DAY) OR BY ARTIST NAME (JENNIFER KNAPP)
0-9|A|B|C|D|E|F|G|H|I|J|K|L|M|N|O|P|Q|R|S|T|U|V|W|X|Y|Z

Join Us Today!

Don't strum alone...
be a part of the largest online Christian music community. Browse thousands of guitar tabs and chat w/ musicians like yourself.


It's Free!

Five Iron Frenzy - All That Is Good

This tab has been rated a 4.50 out of 5 for accuracy. (2 votes)Sorry, but you must be logged in to rate this tab.
Click here to log-in, or you can click here to register.
(Registration is free)

All songs owned by Integrity and Brentwood-Benson are used by permission. If you make copies of any song on this website, be sure to report your usage to CCLI.
title: All that is good
artist: FIF
album: Quantity is job 1
label: 5 Minute Walk
tabbed by: Gloria (the_insane_protagonist@yahoo.com)

(This is pretty close, I think. There are probably some extra beats in there
that I didn't write, but you'll have to listen to it for yourself.)

Remember: "/" means slide up to the note. 
Intro:
(starts w/ guitar)

A-77777777-44444444-22222222-0-2-/7--0-2-/7--0-2/-7-
E---------------------------------------------------

A-77777777-44444444-22222222--0--2-2-|
E------------------------------------|

Verse:

D-----9-76------9-76-------1-24-------1-24-------6-42-------4-21-
A-7-7-------7-7-------22-2-------22-2-------44-4-------22-2------

D----------------------|---------11----------11-------4-21-------4-21-|
A-00-0-7-44--00-0-7-44-|-99-9-12-----99-9-12-----22-2-------22-2------| 

(play all that 2x, on the 2nd time play the last part twice.)

Chorus

D--9-/10-10-10-10--99999999-77777777-66666666-
A-7-------------------------------------------

D---------------------------99999999-|
A-7-9-/12-12-12-12-99999999----------|  2x

then: 

A-0-2-/7--0-2-/7--0-2-/7-| 

Verse

Chorus

Bridge: 

G-----9--------|    |-
D---9---9-77-9-|(3x)|-----7-7-66-2----4-77-66-2----4-99------| 
A-7------------|    |-0-7-----------2------------2------77-9-| 

Do that whole riff 3x, then back to the Chorus. 

End on A-7-|  


That's my interperetation. Like I said, listen to it for yourself and
see if I got anything wrong. 

http://untitled.keenspace.com- emo punk webcomic with prolific FIF references.
--Gloria.

Comments about this tab

the ricksta - 2004-11-26

on the intro part i like to play it without some of the lower strings because they kinda muffle the higher notes.


Add a comment/correction

Complimentary Christian Ringtones
Dadamobile and CGR have teamed up to bring your favorite Christian artists right to your phone. Sign up today and get 10 complementary ringtones!
Tab Country
Did you know CGR has a sister site w/ country guitar tabs? Well we do! Its called Tab Country. It has a great archive with a lot of country tabs.
Rockin Tabs
Are you looking for a site that has rock guitar tabs? Then Rockintabs.com is the place for you. It is a budding site with many rock guitar tabs. Submit your tab today.
Tab Gallery
Tab Gallery has a compilation of christian, rock, and country tabs all in one place. Come visit us.