Bass Tabs
(THIRD DAY) OR BY ARTIST NAME (JENNIFER KNAPP)
0-9|A|B|C|D|E|F|G|H|I|J|K|L|M|N|O|P|Q|R|S|T|U|V|W|X|Y|Z

Join Us Today!

Don't strum alone...
be a part of the largest online Christian music community. Browse thousands of guitar tabs and chat w/ musicians like yourself.


It's Free!

This tab has not yet been rated for accuracy.Sorry, but you must be logged in to rate this tab.
Click here to log-in, or you can click here to register.
(Registration is free)

All songs owned by Integrity and Brentwood-Benson are used by permission. If you make copies of any song on this website, be sure to report your usage to CCLI.
Song/Artist: “Robert Paulson” By Ghoti Hook
Bass Tab By: Kevin Duecker
Copyright: 2001 Velvet Blue Music and Ghoti Hook
 NOTE!!!!: The tuning is Eb A D and G, not the standard E A D G

Intro:
G |REST A FEW BEATS|--------|| ----------------------- ||
D |REST A FEW BEATS|--------||o-----------------------o||
A |REST A FEW BEATS|--------||o----11111111-----------o||
Eb|REST A FEW BEATS|00000000|| 44----------22222200022 ||

Verse:
G |----------------------------------------||Play 2X’s
D |----------------------------------------||
A |----------------------------------------||
Eb|444440022-44444002/7-444440022-444440022||

Chorus Part I:
G |----------------------------------------------||
D |------------------01h3h1p0----------000001111-||
A |11111-----1----------------11111--------------||
Eb|-----2222----4—2----------------2222----------||

Chorus Part II:
G |-------------------------------------||
D |-------------------------------------||
A |1--------1------653-11111------------||
Eb|--4-2------4-2-----------222200000000||

Verse:
G |----------------------------------------||Play 2X’s
D |----------------------------------------||
A |----------------------------------------||
Eb|444440022-44444002/7-444440022-444440022||

Chorus Part I:
G |----------------------------------------------||
D |------------------01h3h1p0----------000001111-||
A |11111-----1----------------11111--------------||
Eb|-----2222----4—2----------------2222----------||

Chorus Part II:
G |-------------------------------------||
D |-------------------------------------||
A |1--------1------653-11111------------||
Eb|--4-2------4-2-----------222200000000||

Bridge:
G |----------|| ----------- ||
D |----------||o-----------o||
A |----------||o--------01-o||
Eb|24---24---|| 4—20-4----- ||

“Guitar Solo”: (This part is a little tricky)
G |---------------5---------||Play 2X’s
D |5-505----875—87-----35h55||
A |-------6----8------------||
Eb|-----------------4-------||

Verse:
G |-------------------------------||
D |-------------------------------||
A |-------------------------------||
Eb|4444024-4444024-4444024-4-4-0-2||

Chorus Part I:
G |----------------------------------------------||
D |------------------01h3h1p0----------000001111-||
A |11111-----1----------------11111--------------||
Eb|-----2222----4—2----------------2222----------||

Chorus Part II:
G |-------------------------------------||
D |-------------------------------------||
A |1--------1------653-11111------------||
Eb|--4-2------4-2-----------222200000000||

Ending:
G || ----------------------- ||----------------------||
D ||o-----------------------o||----------------------||
A ||o----11111111-----------o||----------------------||
Eb|| 44----------22222200022 ||002200220-------------|| Hold The Last “Eb”

That’s it, pretty easy, pretty tough in some parts.
This is a song off of their new EP from Velvet Blue Music, so most
people probably haven’t heard this song. This song is definitely one
of my favorites by Ghoti Hook, God Bless Kevin Duecker

Comments about this tab

No comments/corrections found. Add your own

Complimentary Christian Ringtones
Dadamobile and CGR have teamed up to bring your favorite Christian artists right to your phone. Sign up today and get 10 complementary ringtones!
Tab Country
Did you know CGR has a sister site w/ country guitar tabs? Well we do! Its called Tab Country. It has a great archive with a lot of country tabs.
Rockin Tabs
Are you looking for a site that has rock guitar tabs? Then Rockintabs.com is the place for you. It is a budding site with many rock guitar tabs. Submit your tab today.
Tab Gallery
Tab Gallery has a compilation of christian, rock, and country tabs all in one place. Come visit us.