Bass Tabs
(THIRD DAY) OR BY ARTIST NAME (JENNIFER KNAPP)
0-9|A|B|C|D|E|F|G|H|I|J|K|L|M|N|O|P|Q|R|S|T|U|V|W|X|Y|Z

Join Us Today!

Don't strum alone...
be a part of the largest online Christian music community. Browse thousands of guitar tabs and chat w/ musicians like yourself.


It's Free!

Delirious - Happy Song, The

This tab has been rated a 2.00 out of 5 for accuracy. (2 votes)Sorry, but you must be logged in to rate this tab.
Click here to log-in, or you can click here to register.
(Registration is free)

All songs owned by Integrity and Brentwood-Benson are used by permission. If you make copies of any song on this website, be sure to report your usage to CCLI.
Tabbed by David Garrett sanctify98@hotmail.com [BTB002]

Song:		The Happy Song (remix)
Artist:		Delirious?
Album:		Deeper “the d:finitave worship experience” (FURYCD5)
Author:		Martin Smith © Curious? Music 1994
Sources:	Cutting Edge 1&2 song book (SNIPSM1)

Info:

You have to listen to the CD “Deeper” “the d:finitave worship experience”,
the new delirious album to understand and familiarise yourself with it.
It’s not exact so if you think you can do better then prove it. P.S. can
other people start taking the effort to tab songs and submit them instead
of leaching of everybody else all the time.

Intro: 

G |-------------------------------|--------------------------------|
D |-------0-----2-----------------|--0-----2-----------------------|
A |-3-----------------3--3--2--2--|--------------3-----3--3--2--2--|
E |-------------------------------|--------------------------------|

G |-------------------------------|--------------------------------|
D |-------0-----2-----------------|--------------------------------|
A |-3-----------------3-h7--3--5--|--3--3--0--0-----3--3--0--0-----|
E |-------------------------------|--------------------------------|

Chorus:

G |-------------------------------|--------------------------------|
D |-------0-----2-----------------|--0-----2-----------------------|
A |-3-----------------3--3--2--2--|--------------3-----3--3--2--2--|
E |-------------------------------|--------------------------------|
 Oh, I     could     sing        un-end-ing                songs of 
Well I     could     dance       a thou-sand               miles be 

G |-------------------------------|--------------------------------|
D |-------0-----2-----------------|--------------------------------|
A |-3-----------------3-h7--3--5--|--3--3--0--0-----3--3--0--0-----|
E |-------------------------------|--------------------------------|
    how      You   saved        my soul.
   –cause    of    Your      great love.

Verse 1:

G |-------------------------------|--------------------------------|
D |-------------------------------|--0-----------------------0--0--|
A |-------------------------------|--------------------------------|
E |-3-----------------------3--3--|--------------------------------|
    My heart is burst-ing Lord.     To tell of all You’ve done.
    I wanna shout it out.           From eve –ry roof top sing.

G |-------------------------------|--------------------------------|
D |-------------------------------|--------------------0-----------|
A |-3-----------------------3--3--|--2--2--2-----2--2--------------|
E |-------------------------------|--------------------------------|
    Of how You             changed my life and wiped a – way the past.
    For now I know that    God is for me not a –gainst me.

Chorus

Intro (x2)

Verse 2 :

G |-------------------------------|--------------------------------|
D |-------------------------------|--0-----------------3-h5-h3-----|
A |-------------------------------|-----------------------------3--|
E |-3-----------------------3--3--|--------------------------------|
    My heart is burst-ing Lord.     To tell of all You’ve done.
    
G |-------------------------------|--------------------------------|
D |-------------------------------|--------------------0-----------|
A |-3-----------------------3--3--|--2--2--2-----2--2--------------|
E |-------------------------------|--------------------------------|
    Of how You             changed my life and wiped a – way the past.

G |-------------------------------|--------------------------------|-
D |-------------------------------|--0-----------------3-h5-h3-----|-
A |-------------------------------|-----------------------------3--|-
E |-3-----------------------3--3--|--------------------------------|-
    I wanna shout it out.           From eve –ry roof top sing.

G |-------------------------------|--------------------------------|
D |-------------------------------|--------------------0-----------|
A |-3-----------------------3--3--|--2--2--2-----2--2--------------|
E |-------------------------------|--------------------------------|
    For now I know that    God is for me not a –gainst me.

Chorus

Intro (x2)

Bridge:

G |-------------------------------|--------------------------------|
D |-------------------------------|--------------------------------|
A |-3-----------------------------|--------------------------------|
E |-------------------------------|--------------------------------|
   Eve – ry –bod-y’s sing –ing now,___                ‘cos we’re so

G |-------------------------------|--------------------------------|
D |-------0-----2-----------------|--------0-----2-----------------|
A |-3-----------------3--3--2--2--|--3-----------------3--3--2--2--|
E |-------------------------------|--------------------------------|
   hap – py.

G |-------------------------------|--------------------------------|
D |-------------------------------|--------------------------------|
A |-3-----------------------------|--3-h10-------------------------|
E |-------------------------------|--------------------------------|
   Eve – ry –bod-y’s danc –ing now,___                ‘cos we’re so

G |-------------------------------|--------------------------------|
D |-------0-----2-----------------|--------0-----2-----------------|
A |-3-----------------3--3--2--2--|--3-----------------3--3--2--2--|
E |-------------------------------|--------------------------------|
   hap – py.							    If

G |-------------------------------|--------------------------------|
D |-------------------------------|--------------------------------|
A |-0-----------------------------|--3-----------------------------|
E |-------------------------------|--------------------------------|
   only we could see Your face and see You smi – ling o-ver us__ and

G |-------------------------------|--------------------------------|
D |-------------------------------|--------------------------------|
A |-0-----------------------------|--3--3--3-----------3-h10h3-h15-|
E |-------------------------------|--------------------------------|
   un-seen an –gels cel –e –brate.           For joy is in this place!

Intro (x2)

Chorus (x2)

Intro (x2)

Outro (x3):

G |-------------------------------|--------------------------------|
D |-------0-----2-----------------|--0-----2-----------------------|
A |-3-----------------3--3--2--2--|--------------3-----3--3--2--2--|
E |-------------------------------|--------------------------------|

G |-------------------------------|--------------------------------|
D |-------0-----2-----------------|--------------------------------|
A |-3-----------------3-h7--3--5--|--3--3--0--0-----3--3--0--0-----|
E |-------------------------------|--------------------------------|

End on A (open string)

Comments about this tab

No comments/corrections found. Add your own

Complimentary Christian Ringtones
Dadamobile and CGR have teamed up to bring your favorite Christian artists right to your phone. Sign up today and get 10 complementary ringtones!
Tab Country
Did you know CGR has a sister site w/ country guitar tabs? Well we do! Its called Tab Country. It has a great archive with a lot of country tabs.
Rockin Tabs
Are you looking for a site that has rock guitar tabs? Then Rockintabs.com is the place for you. It is a budding site with many rock guitar tabs. Submit your tab today.
Tab Gallery
Tab Gallery has a compilation of christian, rock, and country tabs all in one place. Come visit us.