Bass Tabs
(THIRD DAY) OR BY ARTIST NAME (JENNIFER KNAPP)
0-9|A|B|C|D|E|F|G|H|I|J|K|L|M|N|O|P|Q|R|S|T|U|V|W|X|Y|Z

Join Us Today!

Don't strum alone...
be a part of the largest online Christian music community. Browse thousands of guitar tabs and chat w/ musicians like yourself.


It's Free!

PFR - Merry Go Round

This tab has not yet been rated for accuracy.Sorry, but you must be logged in to rate this tab.
Click here to log-in, or you can click here to register.
(Registration is free)

All songs owned by Integrity and Brentwood-Benson are used by permission. If you make copies of any song on this website, be sure to report your usage to CCLI.
From: Justin Michael  
title:  Merry Go Round
Original Song(c) 1994 Polygram International Publishing, Inc(ASCAP)
writer: Gordon Kennedy
artist:  PFR
album:  Great Lengths
tuning:  D A D G

Tuning :  E string tuned to D 

Intro and Verse :  (see hint below)

G-------------------------------------|
D-------------------------------------|
A-\5-5-5-5---------\5-5-5-5-----------|
D----------0---0-------------5---5----|

x8 (two for intro, six for verse)

pre-chorus-ish

G-------------------------------------| 
D-------------------------------------|
A-------------------------------------|
D-77-77-66-66-55-55-44-44-------------|

 but I don't understand ...

G----7------7-----5----5----------| 
D---------------------------------|
A-55-----55----33---33------------|
D---------------------------------|
 
         but your hurting inside ...

chorus

A-----------------------------|
D-22222222-33333333-55555555--|

  cause I don't want to be just another ...

A---------------------|
D-5------3------2-----| (I'm not sure about this measure)
  
  rou--ou----ou--ound 

A----------------------------|
D-22222222-33333333-55555555-|

  i'm starting to see another course...

verse (8x)

pre-chorus 

chorus

verse (2x)

bridge  (i think the bridge is right, but not sure here)

G----------------------------7----7---5-|
D---------------------------------------|
A-------------------------55---55--33---|
D-77-77-66-66-55-55-44-44---------------|

merry-go-round solo

chorus

play verse ( 8 1/2 x)

drum outgo

that's it:

Notes:

Hint on the verse

The first few times it sounds like this count to me:

   1 + 2 + 3   4    1 + 2 + 3   4
G-------------------------------------|
D-------------------------------------|
A-\5-5-5-5---------\5-5-5-5-----------|
D----------0---0-------------5---5----|

after the chorus it sounds more sixteenths and less 
slidey maybe a hammer on, and not a slide

   1 + 2 + 3   4    1 + 2 + 3   4
G------------------------------------|
D------------------------------------|
A-h55--5-5---------h55--5-5----------|
D----------0---0------------5---5----|

but i'm not sure, heck, I've only been doing this for 
a few months and I'm over my head.  thanks to my bass 
teacher, Ben, who did the work in figuring out this 
song from my cd.

questions, concerns, wisecracks: jmichael@msn.fullfeed.com

Comments about this tab

No comments/corrections found. Add your own

Complimentary Christian Ringtones
Dadamobile and CGR have teamed up to bring your favorite Christian artists right to your phone. Sign up today and get 10 complementary ringtones!
Tab Country
Did you know CGR has a sister site w/ country guitar tabs? Well we do! Its called Tab Country. It has a great archive with a lot of country tabs.
Rockin Tabs
Are you looking for a site that has rock guitar tabs? Then Rockintabs.com is the place for you. It is a budding site with many rock guitar tabs. Submit your tab today.
Tab Gallery
Tab Gallery has a compilation of christian, rock, and country tabs all in one place. Come visit us.