Bass Tabs
(THIRD DAY) OR BY ARTIST NAME (JENNIFER KNAPP)
0-9|A|B|C|D|E|F|G|H|I|J|K|L|M|N|O|P|Q|R|S|T|U|V|W|X|Y|Z

Join Us Today!

Don't strum alone...
be a part of the largest online Christian music community. Browse thousands of guitar tabs and chat w/ musicians like yourself.


It's Free!

This tab has not yet been rated for accuracy.Sorry, but you must be logged in to rate this tab.
Click here to log-in, or you can click here to register.
(Registration is free)

All songs owned by Integrity and Brentwood-Benson are used by permission. If you make copies of any song on this website, be sure to report your usage to CCLI.
"Enthos" by The Insyderz

Tabbed by: Christopher S. Gordon
e-mail me: christophersgordon@shaw.ca
----------------------------------------------------------------------

I think the first tab of this song posted to this site was done on an
out-of-tune bass. The song is actually in the key of C, and not Bb. So
if you were scratching your head wondering what the heck was wrong,
now you know =)

Intro:

The song opens up with heavily distorted guitar. All instruments hit at
about 0:04. It's simply a C.

G---
D---
A-3-
E---
  C   

Riff 1:

This riff is used thru most of the song, starting at
and first verse.

G-----------------------------------------------------------------
D-----------------------------------------------------------------
A-3-3-3-3-3-3-3-3-----------------6-6-6-6-6-6-6-6-----------------
E-----------------4-4-4-4-4-4-4-4-----------------6-6-6-6-6-6-6-6-
  C               G#              D#              Bb

Riff 2:

About 1:40 into the song the bass starts playing half as many notes as
before. A few transitions are also added.

G-----------------------------------------------------------------
D-----------------------------------------------------------------
A-3---3---3---3-------------------6---6---6---6-----------------2-
E-----------------4---4---4---4-----------------5-6---6---6---6---
  C               G#              D#            A Bb            B

Riff 3:

About 2:06 the guitar comes in hard. The bass riff is almost identical
to the intro and verse aside from brief pauses after each chord change.

G-----------------------------------------------------------------
D-----------------------------------------------------------------
A-3---------3-3-3-----------------6---------6-6-6-----------------
E-----------------4---------4-4-4-----------------6---------6-6-6-
  C               G#              D#              Bb

At 2:30 it returns to Riff 2, at 2:43 back to Riff 1.

Riff 4:

At 2:55 things get interesting =) This was the riff missing from the
previous tab. I'm only going to write the main note changes for ease
of reference.

G-----------------------------------------------------------------
D-------------3-5---------6-4-----------------6-8---------8-6-----
A-3---------------------------6-4-6---------------------------8-6-
E-----------------4-------------------------------6---------------
  C               G#              D#              Bb

At 3:20 the song returns to Riff 1 (or maybe 3, it's kinda hard to
tell... either works).

Outro:

Very short and abrupt, the song ends on C.

G------
D------
A------
E-6-7-8
  BbB C

Remember the Bb here is the same as the last note plucked in the
previous riff.

Comments about this tab

No comments/corrections found. Add your own

Complimentary Christian Ringtones
Dadamobile and CGR have teamed up to bring your favorite Christian artists right to your phone. Sign up today and get 10 complementary ringtones!
Tab Country
Did you know CGR has a sister site w/ country guitar tabs? Well we do! Its called Tab Country. It has a great archive with a lot of country tabs.
Rockin Tabs
Are you looking for a site that has rock guitar tabs? Then Rockintabs.com is the place for you. It is a budding site with many rock guitar tabs. Submit your tab today.
Tab Gallery
Tab Gallery has a compilation of christian, rock, and country tabs all in one place. Come visit us.