Bass Tabs
(THIRD DAY) OR BY ARTIST NAME (JENNIFER KNAPP)
0-9|A|B|C|D|E|F|G|H|I|J|K|L|M|N|O|P|Q|R|S|T|U|V|W|X|Y|Z

Join Us Today!

Don't strum alone...
be a part of the largest online Christian music community. Browse thousands of guitar tabs and chat w/ musicians like yourself.


It's Free!

Thousand Foot Krutch - Up Comes Down

This tab has been rated a 4.00 out of 5 for accuracy. (3 votes)Sorry, but you must be logged in to rate this tab.
Click here to log-in, or you can click here to register.
(Registration is free)

All songs owned by Integrity and Brentwood-Benson are used by permission. If you make copies of any song on this website, be sure to report your usage to CCLI.
Song: Up Comes Down
Artist: Thousand Foot Krutch
CD: Set It Off

Tabbed by Deren (deren_s@hotmail.com)

NOTE: drop D tunning

\ = slide up
()= might be played
h = Hammer on

INTRO: Repeat the pattern and hold last note
                                                                    BRAKE!!
G-------------------------------------------------------------13-13-
D--\12-14-12-15-12-14-12-15-12-14h15--12-14-12-15-12-14-12-15-------
A-------------------------------------------------------------------
D-------------------------------------------------------------------

GUITAR COMES IN: Heavy

G--------------------------------------------
D--------------------------------------------
A--------------------------------------------
D-0-2-0-3-0-2-0-3-0-2h3-0-2-0-3-0-2-0-3-6-6--  End on Open low D

VERSE:

G-------------------
D----(14)-14H15-12~~
A-15----------------  Repeat as needed
D-------------------

CHORUS:

G---------------------------------------
D---------------------------------------
A---------------------------------------
D-0-000-000--555-666-0-000-000-555-333-- Then back to heavy intro rift


BRIDGE: "it stays on, like the stage we blaze on" Fool around with this:
G-----------------------------------------------------------
D----12p10-10h12------------------10/12-10-10h12------------
A-----------------------------------------------------------
D--0--------------0000--0000----0-----------------0000--0000

Those are the basic parts of the song, there are some variations but I'm
sure you can figure them out. 
Take care all, Keep rockin' for God,
-Deren

Comments about this tab

No comments/corrections found. Add your own

Complimentary Christian Ringtones
Dadamobile and CGR have teamed up to bring your favorite Christian artists right to your phone. Sign up today and get 10 complementary ringtones!
Tab Country
Did you know CGR has a sister site w/ country guitar tabs? Well we do! Its called Tab Country. It has a great archive with a lot of country tabs.
Rockin Tabs
Are you looking for a site that has rock guitar tabs? Then Rockintabs.com is the place for you. It is a budding site with many rock guitar tabs. Submit your tab today.
Tab Gallery
Tab Gallery has a compilation of christian, rock, and country tabs all in one place. Come visit us.