Bass Tabs
(THIRD DAY) OR BY ARTIST NAME (JENNIFER KNAPP)
0-9|A|B|C|D|E|F|G|H|I|J|K|L|M|N|O|P|Q|R|S|T|U|V|W|X|Y|Z

Join Us Today!

Don't strum alone...
be a part of the largest online Christian music community. Browse thousands of guitar tabs and chat w/ musicians like yourself.


It's Free!

Audio Adrenaline - It's Over

This tab has been rated a 4.00 out of 5 for accuracy. (1 vote)Sorry, but you must be logged in to rate this tab.
Click here to log-in, or you can click here to register.
(Registration is free)

All songs owned by Integrity and Brentwood-Benson are used by permission. If you make copies of any song on this website, be sure to report your usage to CCLI.
It's Over
Audio Adrenaline

ok, this is my first tab, so don't be that harsh. i've been, playing this,
and it sounds aight.

intro
A-3-3-3-3---------3-3-3-3---------3-3-3-3---------5-5-5-5-5-5-5-5
E---------3-3-3-3---------3-3-3-3---------3-3-3-3----------------

verse 1                                                     I think
A-----------------5-5-5-5--------------------------------(7h8h9-10-9)  
E-0-0-0-0-5-5-5-5---------3-3-3-3-0-0-0-0-5-5-5-5-5-5-5-5-----------

A-----------------5-5-5-5-------------------------5-5-5-5-5-5-5-5-
E-0-0-0-0-5-5-5-5---------3-3-3-3-0-0-0-0-5-5-5-5-----------------

verse 2
A-----------------5-5-5-5--------------------------------(7h8h9----9)
E-0-0-0-0-5-5-5-5---------3-3-3-3-0-0-0-0-5-5-5-5-5-5-5-5-----------

A-----------------5-5-5-5-------------------------5-5-5-5-5-5-5-5-
E-0-0-0-0-5-5-5-5---------3-3-3-3-0-0-0-0-5-5-5-5-----------------

verse 3 (drums and bass)
A---------3-3-3-3-5-5-5-5-----------------3-3-3-3-5-5-5-5--------
E-0-0-0-0-----------------3-3-3-3-0-0-0-0-----------------3-3-3-3

A---------3-3-3-3-5-5-5-5-7-7-7-7-9-9-9-9-9-9-9-9
E-0-0-0-0----------------------------------------

Chorus 1
A-3-3-3-3---------3-3-3-3---------3-3-3-3---------5-5-5-5-5-5-5-5
E---------3-3-3-3---------3-3-3-3---------3-3-3-3----------------

A---------3-3-3-3-5-5-5-5------------------------
E-0-0-0-0-----------------3-3-3-3-0-0-0-0-5-5-5-5

Chorus 2
A-3-3-3-3---------3-3-3-3---------3-3-3-3---------5-5-5-5-5-5-5-5
E---------3-3-3-3---------3-3-3-3---------3-3-3-3----------------

A---------3-3-3-3-5-5-5-5----------------------------------------
E-0-0-0-0-----------------3-3-3-3-0-0-0-0-5-5-5-5-0-0-0-0-0-0-0-0

A---------3-3-3-3-5-5-5-5--------------------------------
E-0-0-0-0-----------------3-3-3-3-0-0-0-0-5-5-5-5-0-0-0-0

Chorus 3
A-----------------5-5-5-5--------------------------------
E-0-0-0-0-5-5-5-5---------3-3-3-3-0-0-0-0-5-5-5-5-0-0-0-0

A-----------------5-5-5-5----------------------------------------
E-0-0-0-0-5-5-5-5---------3-3-3-3-0-0-0-0-5-5-5-5-0-0-0-0-0-0-0-0

intro        
verse 1      Verse 2    Verse 3   intro til the end
chorus 1     Chorus 2   Chorus 3

Well, thats it, Im about 95 percent its right. If there are any ?'s or
adjustments, email me @ dj_airsman@lycosmail.com. o, and EXPLODE!!!

Comments about this tab

imadork - 2005-11-05

on the 2nd measure and the 2.5 beat, you should hammer from 0 to 2 so it should look like this:

E|-------0h2--3

& 3


ice_wiz - 2006-07-01

E5add9 D5add9 A5,add9, A5, CMaj7no3
Bsus CMaj7 D6Maj9
Chorus: E5 C#m7 A2 Bsus
Use those chords and you'll play it like it's supposed to be played.


Add a comment/correction

Complimentary Christian Ringtones
Dadamobile and CGR have teamed up to bring your favorite Christian artists right to your phone. Sign up today and get 10 complementary ringtones!
Tab Country
Did you know CGR has a sister site w/ country guitar tabs? Well we do! Its called Tab Country. It has a great archive with a lot of country tabs.
Rockin Tabs
Are you looking for a site that has rock guitar tabs? Then Rockintabs.com is the place for you. It is a budding site with many rock guitar tabs. Submit your tab today.
Tab Gallery
Tab Gallery has a compilation of christian, rock, and country tabs all in one place. Come visit us.