Bass Tabs
(THIRD DAY) OR BY ARTIST NAME (JENNIFER KNAPP)
0-9|A|B|C|D|E|F|G|H|I|J|K|L|M|N|O|P|Q|R|S|T|U|V|W|X|Y|Z

Join Us Today!

Don't strum alone...
be a part of the largest online Christian music community. Browse thousands of guitar tabs and chat w/ musicians like yourself.


It's Free!

This tab has not yet been rated for accuracy.Sorry, but you must be logged in to rate this tab.
Click here to log-in, or you can click here to register.
(Registration is free)

All songs owned by Integrity and Brentwood-Benson are used by permission. If you make copies of any song on this website, be sure to report your usage to CCLI.
Artist: Hangnail
Song: Friendly Advice	
 1999 BEC recordings

Intro(2x) 
(played on guitar, but is fun to play on bass)

G:----------------------------------0-----
D:---0-0-7-0-8-7-0-7-0-(10)-8-7-8-7---7---
A:----------------------------------------
E:----------------------------------------
then:
G:-------------------------------------
D:---0-0-7-0-8-7-0-7-0-0-7-0-8-7-0-7---
A:-------------------------------------
E:-------------------------------------
then play that order once more and go into chorus

Verse (Palm Mute)
G:-------------------------------------------------
D:-------------------------------------------------
A:--5--55--55--5555--5--5--------------------------
E:------------------------5--55--55--5555---5---5--

G:-----------------------------------------------
D:-----------------------------------------------
A:--5--55--55--5555--5--5------------------------
E:------------------------6--66--66--6666--6--6--

Chorus(first part, repeat once)
G:-----------------------------------------
D:-----------------------------------------
A:--5-5-------8-88-8--3-3-------------8-7--
E:------6-6-6-------------4-4-4-6-6-6------
(second part)
G:--------------------------------------
D:--------------------------------------
A:--5------8-88-8--3-3-------------8-7--
E:-----6-6-------------4-4-4-6-6-6------
(guitar plays this, bass isn't played until afterwards)
G:------------------
D:---0-0-7-0-8-7-0--
A:------------------
E:------------------

G:-----------------------------------------
D:-----------------------------------------
A:--5-5-------8-88-8--3-3-------------8-7--
E:------6-6-6-------------4-4-4-6-6-6------



Breakdown(played on guitar)
2x:
G:-------------------------------------
D:---0-0-7-0-8-7-0-7-0-7-0-(10)-8-7-8--
A:-------------------------------------
E:-------------------------------------
then go 2x:
G:---0-0-7-0-8-7-0-7-0-7-0-(10)-8-7-8--
D:-------------------------------------
A:-------------------------------------
E:-------------------------------------

I don't know if they breakdown is right or not, but I thought I'd stick it in here anyway :)

Here's the order of things:

Intro
Chorus, part 1
verse
Chorus
verse
Chorus
guitar solo
Chorus
Chorus, part 1, played twice

Comments about this tab

No comments/corrections found. Add your own

Complimentary Christian Ringtones
Dadamobile and CGR have teamed up to bring your favorite Christian artists right to your phone. Sign up today and get 10 complementary ringtones!
Tab Country
Did you know CGR has a sister site w/ country guitar tabs? Well we do! Its called Tab Country. It has a great archive with a lot of country tabs.
Rockin Tabs
Are you looking for a site that has rock guitar tabs? Then Rockintabs.com is the place for you. It is a budding site with many rock guitar tabs. Submit your tab today.
Tab Gallery
Tab Gallery has a compilation of christian, rock, and country tabs all in one place. Come visit us.