Bass Tabs
(THIRD DAY) OR BY ARTIST NAME (JENNIFER KNAPP)
0-9|A|B|C|D|E|F|G|H|I|J|K|L|M|N|O|P|Q|R|S|T|U|V|W|X|Y|Z

Join Us Today!

Don't strum alone...
be a part of the largest online Christian music community. Browse thousands of guitar tabs and chat w/ musicians like yourself.


It's Free!

Tree63 - Look What You've Done

This tab has not yet been rated for accuracy.Sorry, but you must be logged in to rate this tab.
Click here to log-in, or you can click here to register.
(Registration is free)

All songs owned by Integrity and Brentwood-Benson are used by permission. If you make copies of any song on this website, be sure to report your usage to CCLI.
Bass Tab
Look What You’ve Done 
Tree63
Written by Jon Ellis
Tabbed by Scott Welch - dcWhut?  (snjwelch@bellsouth.net)

Don't play the intro. Start  with "I've never been the same." This is how
I play the song.  By the way, it's my first tab ever; so, if I'm off, let
me know. Thanks

Verse 1: No Play for  you!  "Look what You've done for me........Jesus, my Savior, look what You've done for me"
Second Verse: "I've never been the same....."
      Q   h+e     Q   h+e    Q   h+e    Q   h+e    Q   h+e     Q   h+e    Q   h+e    Q   h+e
G--------------|-----------|-----------|----------|------------|-----------|-----------|-----------|
D--------------|-----------|-----------|----------|------------|-----------|-----------|-----------|
A---3---3----|-----------|--3--3----|------6---|------------|-----------|--6--6----|--6--6----|
E--------------|-4--4-----|-----------|-4-------|--6---6----|--4--4----|-----------|-----------|

Chorus:
      q  q      T        q  q      T         q  q      T         q  q      T  (2x)   q  q      T        q  q      T        q  q      T         q  q      T     
G------------------|-----------------|-----------------|-----------------|  |-----------------|-----------------|-----------------|-----------------|
D------------------|-----------------|-----------------|-----------------|  |-----------------|-----------------|-----------------|-----------------|
A------------------|-----------------|--6--6--6-6-6-|--6--6--6-6-6-|  |--3--3--3-3-3-|-----------------|-----------------|--6--6--6-6-6-|
E---6--6--6-6-6-|--4--4--4-4-4-|-----------------|-----------------|  |-----------------|--4--4--4-4-4-|--6--6--6-6-6-|-----------------|

      q  q      T        q  q      T         q  q      T         q  q      T  
G------------------|-----------------|-----------------|-----------------| 
D------------------|-----------------|-----------------|-----------------| 
A------------------|-----------------|--6--6--6-6-6-|--6--6--6-6-6-|
E---6--6--6-6-6-|--4--4--4-4-4-|-----------------|-----------------| 

Verse 3/4: same as verse 2

My band sings an accapella chorus somewhere after the guitar solo and
before the last chorus.  It works really well and brings the sound to
a really worshipful level. 

Comments about this tab

No comments/corrections found. Add your own

Complimentary Christian Ringtones
Dadamobile and CGR have teamed up to bring your favorite Christian artists right to your phone. Sign up today and get 10 complementary ringtones!
Tab Country
Did you know CGR has a sister site w/ country guitar tabs? Well we do! Its called Tab Country. It has a great archive with a lot of country tabs.
Rockin Tabs
Are you looking for a site that has rock guitar tabs? Then Rockintabs.com is the place for you. It is a budding site with many rock guitar tabs. Submit your tab today.
Tab Gallery
Tab Gallery has a compilation of christian, rock, and country tabs all in one place. Come visit us.