Bass Tabs
(THIRD DAY) OR BY ARTIST NAME (JENNIFER KNAPP)
0-9|A|B|C|D|E|F|G|H|I|J|K|L|M|N|O|P|Q|R|S|T|U|V|W|X|Y|Z

Join Us Today!

Don't strum alone...
be a part of the largest online Christian music community. Browse thousands of guitar tabs and chat w/ musicians like yourself.


It's Free!

Lifehouse - Hanging By A Moment

This tab has not yet been rated for accuracy.Sorry, but you must be logged in to rate this tab.
Click here to log-in, or you can click here to register.
(Registration is free)

All songs owned by Integrity and Brentwood-Benson are used by permission. If you make copies of any song on this website, be sure to report your usage to CCLI.
I think it is supposed to be played on an upright bass, but you can do it on
any fretless...it might even work on a fretted bass but i don\'t know.  It is
played in drop c# (standard dropped d tuning, then tune all strings down an
extra half step) there is one part right after the chorus that i can\'t figure
out...anyone who plays by ear will know which part it is...if you know it,
please email me at slapmaster201@netzero.net

Hanging By A Moment
Lifehouse
   

 repeat throughout intro
Gb------------------------------------------------------------------
Db------------------------------------------------------------------
Ab------------------------------------------------------------------
Db-h5/7\\2-0---------------------------------------------------------
      
	first verse
Gb------------------------------------------------------------------
Db------------------------------------------------------------------
Ab------------------------------------------------------------------
Db-5---7-0--------5---7-0-------------------------------------------

       verse riff (not played for 1st verse)
Gb------------------------------------------------------------------
Db----0-2-0-------0---5-4-------------------------------------------
Ab---0--------0-----------5-----------------------------------------
Db-0--------2---0---0-----------------------------------------------

                    chorus riff (bass plays melody)
Gb------------------------------------------------------------------
Db-5-4-2-0-------------------5-4-2-0--------------------------------
Ab---------2-2-2-2-0-----------------2-2-2-2-0----------------------
Db-------------------0-0---0-------------------0-0---0--------------

              right after chorus
Gb------------------------------------------------------------------
Dd---------------------------------------7-7-----7-7----------------
Ab-----5-5-----5-5-----5-5-----5-5---5-5-----5-5-----5-5-7-7-5-5-7-7
Db-5-5-----4h5-----5-5-----4h5--------------------------------------


Gb------------------------------------------------------------------
Db------------------------------------------------------------------
Ab------------------------------------------------------------------
Db-5-5-5-5-5-5-5-5/7-7-7-7-7-7-7-7-2-2-2-2-2-2-2-2-2-2-2-2-2-2-2-2--




========================================================================
==                       TABLATURE EXPLANATION                        ==
========================================================================

----------                ----------                ----t---
----5h8--- Hammeron       ----(8)--- Ghost          ----6--- Tap
----------                ---------- Note           --------
----5p8--- Pulloff        ----------                --------

----------                ----------                -----p--
----5/8--- Slide Up       -----x---- Dead           -----7-- Pop
----------                ---------- Note           --s-----
----5\\8--- Slide Down     ----------                --5----- Slap 

----------                ||------|| Repeat         --------
----5~~~-- Vibrato        ||*----*||                ---5^--- Bend
----------                ||*----*||                --------
----------                ||------||                --------

----------
-4:------- Time
-4:------- Signature
----------

Rhythm:
  w = whole note            W = dotted whole
  h = half note             H = dotted half
  q = quarter note          Q = dotted quarter
  e = eighth note           E = dotted eighth
  s = sixteenth note        S = dotted sixteenth
  t = 32nd note             T = dotted 32nd
  x = 64th note             X = dotted 64th
  ^ = triplet

Comments about this tab

No comments/corrections found. Add your own

Complimentary Christian Ringtones
Dadamobile and CGR have teamed up to bring your favorite Christian artists right to your phone. Sign up today and get 10 complementary ringtones!
Tab Country
Did you know CGR has a sister site w/ country guitar tabs? Well we do! Its called Tab Country. It has a great archive with a lot of country tabs.
Rockin Tabs
Are you looking for a site that has rock guitar tabs? Then Rockintabs.com is the place for you. It is a budding site with many rock guitar tabs. Submit your tab today.
Tab Gallery
Tab Gallery has a compilation of christian, rock, and country tabs all in one place. Come visit us.