Bass Tabs
(THIRD DAY) OR BY ARTIST NAME (JENNIFER KNAPP)
0-9|A|B|C|D|E|F|G|H|I|J|K|L|M|N|O|P|Q|R|S|T|U|V|W|X|Y|Z

Join Us Today!

Don't strum alone...
be a part of the largest online Christian music community. Browse thousands of guitar tabs and chat w/ musicians like yourself.


It's Free!

Burlap To Cashmere - Treasures in Heaven

This tab has been rated a 5.00 out of 5 for accuracy. (1 vote)Sorry, but you must be logged in to rate this tab.
Click here to log-in, or you can click here to register.
(Registration is free)

All songs owned by Integrity and Brentwood-Benson are used by permission. If you make copies of any song on this website, be sure to report your usage to CCLI.
Treasures in Heaven (bass tab)
Burlap to Cashmere--Anybody Out There
Written by Steven Delopoulos
Copyright 1997 Steven Delopoulos Publishing/Trippy Stick Publishing/ J. Ernest Publishing

Guitar & vocal enter- rest 11 bars

  |   |   |   |  |   |   |   |  |   |   |   |  |   |   |   |  |   |   |   |   
||--------------|5-------------|----4---2-0---|--------------|--------------|
||----------5---|--------------|------------0-|--------------|--------------|
||----3---------|--------------|--------------|3-------------|--------------|
||--------------|--------------|0-------------|--------------|0---------3---|

                                   {chorus riff
 |   |   |   |  |   |   |   |   |   |   |   |  |   |   |   |  |   |   |   |   
|--------------|--------------||--------------|--------7-5---|--------------|
|--------------|--------------||--------5-----|----5-------5-|--------5-----|
|3-------------|--------------||-----5------5-|3-------------|----5-------5-|
|--------------|0-----0---2---||3-------------|--------------|3-------------|


 |   |   |   |  |   |   |   |  |   |   |   |  |   |   |   |  |   |   |   |   
|--------7-5---|--------------|--------7-5---|--------5-----|--------5-----|
|-----5------5-|--------5-----|-----5------5-|----5-------5-|----5-------5-|
|3-------------|----5-------5-|3-------------|3-------------|3-------------|
|--------------|3-------------|--------------|--------------|--------------|

                                 } {verse riff
 |   |   |   |  |   |   |   |   |   |   |   |  |   |   |   |  |   |   |   |   
|----9-7-------|----9-7-------||--------------|--------------|--------------|
|--7---------7-|--7-----------||--------------|--------------|-----9--------|
|5-------------|5-------------||-----10-------|------7-------|--------------|
|--------------|--------------||8-----------8-|0-----------0-|7-----------7-|

                                                                                    }
 |   |   |   |  |   |   |   |  |   |   |   |  |   |   |   |  |   |   |   |   
|--------------|--------------|--------------|--------------|--------------||
|-----10-------|--------------|--------------|------9-------|--------------||
|--------------|-----10-------|-----7--------|--------------|--------------||
|8-----------8-|8-----------8-|0-----------0-|7-----------7-|8-8---8-------||

 {bridge riff
  |   |   |   |  |   |   |   |  |   |   |   |  |   |   |   |  |   |   |   |   
||--------------|--------------|--------------|--------------|--------------|
||--------------|--------------|--------------|--------------|--------------|
||--------------|----------7---|--------------|-------9---7--|--------------|
||8-----------8-|0---0-10------|8-----------8-|0----0--------|8-----------8-|

                }
 |   |   |   | 
|--------------||  Repeat in sequence: {chorus riff}
|--------------||                      {verse riff} under solo
|--------------||                      {bridge riff}
|0-----0---2---||                      then continue:

 {soft chorus riff}
  |   |   |   |    |   |   |   |    |   |   |   |    |   |   |   | 
||----------------|---------14-12--|----------------|----------------||
||----------------|----------------|----------------|----------------||
||14-----------14-|15------------15|14-----------14-|1515141412------||
||----------------|----------------|----------------|----------0-2-2-||

Repeat {chorus riff} {verse riff} let last bar ring (end on funky piano chord)

I tried to be accurate w/rhythms, but listen to the recording to get the feel.
This is a great band with a great bassist- and a fun song to play.

God bless and keep rocking-
Matthew L. Reece
mkreece@juno.com

Comments about this tab

No comments/corrections found. Add your own

Complimentary Christian Ringtones
Dadamobile and CGR have teamed up to bring your favorite Christian artists right to your phone. Sign up today and get 10 complementary ringtones!
Tab Country
Did you know CGR has a sister site w/ country guitar tabs? Well we do! Its called Tab Country. It has a great archive with a lot of country tabs.
Rockin Tabs
Are you looking for a site that has rock guitar tabs? Then Rockintabs.com is the place for you. It is a budding site with many rock guitar tabs. Submit your tab today.
Tab Gallery
Tab Gallery has a compilation of christian, rock, and country tabs all in one place. Come visit us.