Bass Tabs
(THIRD DAY) OR BY ARTIST NAME (JENNIFER KNAPP)
0-9|A|B|C|D|E|F|G|H|I|J|K|L|M|N|O|P|Q|R|S|T|U|V|W|X|Y|Z

Join Us Today!

Don't strum alone...
be a part of the largest online Christian music community. Browse thousands of guitar tabs and chat w/ musicians like yourself.


It's Free!

Sonicflood - I Have Come To Worship You

This tab has not yet been rated for accuracy.Sorry, but you must be logged in to rate this tab.
Click here to log-in, or you can click here to register.
(Registration is free)

All songs owned by Integrity and Brentwood-Benson are used by permission. If you make copies of any song on this website, be sure to report your usage to CCLI.
I Have Come To Worship You
Sonicflood
Tabbed by: David Jephcott
Email:djnewcreation@hotmail.com

Most of this is right but I could not get all the grooves.
Note: A lot of pull offs and hammer-ons but I don’t put them on the tab.

Intro and Chorus

G|--------------------------------|--------------------------------|
D|--------------------------------|--------------------------------| x2
A|-5-5-5-----------5-5-5----------|-------5-8-5-8-5-------5-8-5-8-5|
E|-------5-8-5-8-5-------5-8-5-8-5|-3-3-3-----------3-3-3----------|

Verse
G|-------------------------------------|
D|-------------------------------------|
A|--2222222222222223333333333333335532-|
E|-------------------------------------|

G|-------------------------------------|
D|-------------------------------------|
A|--222222222222222333333333333333553--|
E|-------------------------------------|

G|-----------------------------5-4--------|
D|---------------------------------7-5-4--|
A|----------------------------------------|
E|--5-------0---------5-----3-------------|


Bridge

For only you are worthy!

G|----------------------------------
D|----------------------------------
A|-----------------------------5----
E|--55555555777777777555577777------

Oh and I have come to worship you!

G|-----------------------
D|-----------------------
A|-2-------2-5-2-0-------
E|---0-2-5----------------

That’s it.

Comments about this tab

No comments/corrections found. Add your own

Complimentary Christian Ringtones
Dadamobile and CGR have teamed up to bring your favorite Christian artists right to your phone. Sign up today and get 10 complementary ringtones!
Tab Country
Did you know CGR has a sister site w/ country guitar tabs? Well we do! Its called Tab Country. It has a great archive with a lot of country tabs.
Rockin Tabs
Are you looking for a site that has rock guitar tabs? Then Rockintabs.com is the place for you. It is a budding site with many rock guitar tabs. Submit your tab today.
Tab Gallery
Tab Gallery has a compilation of christian, rock, and country tabs all in one place. Come visit us.