Bass Tabs
(THIRD DAY) OR BY ARTIST NAME (JENNIFER KNAPP)
0-9|A|B|C|D|E|F|G|H|I|J|K|L|M|N|O|P|Q|R|S|T|U|V|W|X|Y|Z

Join Us Today!

Don't strum alone...
be a part of the largest online Christian music community. Browse thousands of guitar tabs and chat w/ musicians like yourself.


It's Free!

Burlap To Cashmere - Eileen's Song

This tab has not yet been rated for accuracy.Sorry, but you must be logged in to rate this tab.
Click here to log-in, or you can click here to register.
(Registration is free)

All songs owned by Integrity and Brentwood-Benson are used by permission. If you make copies of any song on this website, be sure to report your usage to CCLI.
Eileen's Song
Burlap to Cashmere--Anybody Out There
Written by Steven Delopoulos
Copyright 1997 Steven Delopoulos Publishing/Trippy Stick Publishing/
J. Ernest Publishing

i ignored timing when i spaced these.  listen to the cd--support the band!
i also ignored how many times he hit the string on one note.

verse
G-1/2------------------------------------------
D-----4p2--------------1-1h2----------2-1------
A---------4p2--0---4---------2--0--4------2--0-
E----------------------------------------------
   ^fast       ^slow

G---------8-8h9------------------------
D-7---11--------9-7------------2-1-----
A----------------------0---4-------2-0-
E--------------------------------------

chorus
G-------------------------4h6-4-----4----------6h8-6---
D------2----2--------4----------6-2---2----6---------6-
A---0----0----0--2-----2-----------------4---4---------
E-0----------------------------------------------------

then repeat, but when you get to C#, go to A
that's pretty much it...i think.  

email me at jtriemst@engin.umich.edu if you don't like this 
(or if you really do and want to say so)

Comments about this tab

No comments/corrections found. Add your own

Complimentary Christian Ringtones
Dadamobile and CGR have teamed up to bring your favorite Christian artists right to your phone. Sign up today and get 10 complementary ringtones!
Tab Country
Did you know CGR has a sister site w/ country guitar tabs? Well we do! Its called Tab Country. It has a great archive with a lot of country tabs.
Rockin Tabs
Are you looking for a site that has rock guitar tabs? Then Rockintabs.com is the place for you. It is a budding site with many rock guitar tabs. Submit your tab today.
Tab Gallery
Tab Gallery has a compilation of christian, rock, and country tabs all in one place. Come visit us.