Bass Tabs
(THIRD DAY) OR BY ARTIST NAME (JENNIFER KNAPP)
0-9|A|B|C|D|E|F|G|H|I|J|K|L|M|N|O|P|Q|R|S|T|U|V|W|X|Y|Z

Join Us Today!

Don't strum alone...
be a part of the largest online Christian music community. Browse thousands of guitar tabs and chat w/ musicians like yourself.


It's Free!

Burlap To Cashmere - Anybody Out There?

This tab has not yet been rated for accuracy.Sorry, but you must be logged in to rate this tab.
Click here to log-in, or you can click here to register.
(Registration is free)

All songs owned by Integrity and Brentwood-Benson are used by permission. If you make copies of any song on this website, be sure to report your usage to CCLI.
Tab Entry: Title: Anybody Out There
Artist: Burlap to Cashmere
Album: Anybody Out There
Copyright: 1997 Steven Delopoulos (ASCAP)

The bass doesn't come in til the second chorus.

Chorus:

G--------------------------------------------------------------------
D-------------------------------4-----4------------------------------
A-2-2-2-0---5-----5---------0-2---2-2---2-2-2-2-0---5-------------0-2
E---------3---3-3---3-3-3-3-----------------------3---3-3-2-0-0-3----
B--------------------------------------------------------------------

G-------------------------------------------------|
D---------------------------2-4-2-----------------|
A-2-2-0---5-----5-----0-2-5-------5-2-2-0---------|
E-------3---3-3---3-3---------------------3-3-2-0-|
B-------------------------------------------------|

Verse:

G----------------------------------|
D-----------------4-4--------------|
A----5-4-2-------2-2-2-2-2-0-0-0-h2|
E----------------------------------|
B-0-0-----0-3-2-0------------------|

The order is:
Chorus
Verse
Chorus
Verse (Guitar Solo)
Chorus (Guitar Solo for the first half then the singers come in)
Chorus
If you don't have a five string, the open low string is second on the 
A string, seconds are fourth on the A, and the thirds are fifth on the
A string or open on the D string.  Any ?'s or comments e-mail me at 
Jeff1229@Juno.com


Comments about this tab

No comments/corrections found. Add your own

Complimentary Christian Ringtones
Dadamobile and CGR have teamed up to bring your favorite Christian artists right to your phone. Sign up today and get 10 complementary ringtones!
Tab Country
Did you know CGR has a sister site w/ country guitar tabs? Well we do! Its called Tab Country. It has a great archive with a lot of country tabs.
Rockin Tabs
Are you looking for a site that has rock guitar tabs? Then Rockintabs.com is the place for you. It is a budding site with many rock guitar tabs. Submit your tab today.
Tab Gallery
Tab Gallery has a compilation of christian, rock, and country tabs all in one place. Come visit us.