Bass Tabs
(THIRD DAY) OR BY ARTIST NAME (JENNIFER KNAPP)
0-9|A|B|C|D|E|F|G|H|I|J|K|L|M|N|O|P|Q|R|S|T|U|V|W|X|Y|Z

Join Us Today!

Don't strum alone...
be a part of the largest online Christian music community. Browse thousands of guitar tabs and chat w/ musicians like yourself.


It's Free!

Tait - Spy

This tab has been rated a 3.50 out of 5 for accuracy. (2 votes)Sorry, but you must be logged in to rate this tab.
Click here to log-in, or you can click here to register.
(Registration is free)

All songs owned by Integrity and Brentwood-Benson are used by permission. If you make copies of any song on this website, be sure to report your usage to CCLI.
Title:  Spy
Artist:  Michael Tait aka Tait
Copyright: 2001 Forefront records


Ok, here it is fresh off the internet. To me itís one of the
coolest songs off michael taitís album Empty, and itís the
first tab on here from it.  This should be somewhat close
to the way itís played, but knowing me Iím probally in the
wrong key.  This is playing in standard tuning.

Intro and little dibbie during the song:
The F# is verry quick.  I have doubts of even putting it in,
but it is there

G|-----------------------------------------------|
D|-----------------------------------------------|
A|-----------------------------------------------|
E|-0-0-0-2-0-3--0-0-0-0-5--0-0-0-0-6-6-6-6-6-6-6-|

Verses:  I can hear bass in here but the problem is that the
bass player is verry good and heís doing something that I canít
figure out.  The guitar effects cover it up, but I can figure
out that the root chords are E then A

Prechorus

G|-------------|
D|-------------|
A|-------------|
E|--5-5-5-4\3--|

Chorus:

G|-----------------|
D|-----------------|
A|-----------------|
E|--0---3--5----8--|

Bridge part 1:

G|-------------------|-----------------|
D|-------------------|-----------------|
A|-------------------|-/7-7-7----------|
E|--0-0-0--6-5--3--0-|---------6-5-3-0-|

Bridge part 2:

G|------------------------------------|
D|------------------------------------|
A|------------------------------------|
E|--3p0-0-3p0-0-3p0-0-3p0-3-3p0--5-5--|

Bridge part 3: I had a hard time with this part, but I think
itís right

G|-------------------------9-9-9----9-9-9--------|
D|--9-9-9---9-9-9--------------------------------|
A|--7-7-7---7-7-7----------7-7-7----7-7-7--------|
E|--------0-------0--0-0---------0--------0--0-0-|

The song ends on an open E.  Hope you enjoy this and maybe
someoneíll figure out the verses in this song.  If you think
this is wrong and you think you have the right version please
submit too

Scott aka Beav
cornpatch777@hotmail.com

Comments about this tab

No comments/corrections found. Add your own

Complimentary Christian Ringtones
Dadamobile and CGR have teamed up to bring your favorite Christian artists right to your phone. Sign up today and get 10 complementary ringtones!
Tab Country
Did you know CGR has a sister site w/ country guitar tabs? Well we do! Its called Tab Country. It has a great archive with a lot of country tabs.
Rockin Tabs
Are you looking for a site that has rock guitar tabs? Then Rockintabs.com is the place for you. It is a budding site with many rock guitar tabs. Submit your tab today.
Tab Gallery
Tab Gallery has a compilation of christian, rock, and country tabs all in one place. Come visit us.