Bass Tabs
(THIRD DAY) OR BY ARTIST NAME (JENNIFER KNAPP)
0-9|A|B|C|D|E|F|G|H|I|J|K|L|M|N|O|P|Q|R|S|T|U|V|W|X|Y|Z

Join Us Today!

Don't strum alone...
be a part of the largest online Christian music community. Browse thousands of guitar tabs and chat w/ musicians like yourself.


It's Free!

Pax217 - Free To Be

This tab has been rated a 5.00 out of 5 for accuracy. (3 votes)Sorry, but you must be logged in to rate this tab.
Click here to log-in, or you can click here to register.
(Registration is free)

All songs owned by Integrity and Brentwood-Benson are used by permission. If you make copies of any song on this website, be sure to report your usage to CCLI.
Song: Free to Be
Band: Pax 217
Cd: Pax 217
Copyright: 2000 Starstruck Music (ASCAP)
Tabbed by: Ryanne (evdm@voyager.net)

*Drop D tuning*

Bass comes in at 0:25 the part in () is also the verse riff
G|---------------------------(--------------------------)--------------
D|-2-2-----2-4-5-------------(-2-2----2-4-5-------------)--------------
A|-----2--2-2----------------(----2--2-2--------------2-)--------------
D|---------------55-0-55-0-5-(--------------55-0-x5-7---)--------------

Prechorus part A: at  1:27
G|---------------------------2-2-4-5-----------------------------------
D|----------2--2-4-----------------------------------------------------
A|-7//----2--2-----2--5-5--5-------------------------------------------
D|---------------------------------------------------------------------

Part B: at  1:45
G|--------------------------7p5-----5----------------------------------
D|----------2-4/5/4-2-----------7--7-7---------------------------------
A|-7//--2-2-----------3--55--------------------------------------------
D|---------------------------------------------------------------------

Chorus: x2  at   1:52 
G|-7p5--77p5-------4h55--77p5---7p5------------------------------------
D|-------------5h7-----------------5h7---------------------------------
A|----5-----5----------------5---5-----2-3-----------------------------
D|---------------------------------------------------------------------

Intro x2   at   2:16
Verse
Prechorus part A  x3   at  3:24
then part B
Chorus x2   at  3:49

Slow chorus: repeat till end, I think that this may be played on a 5 string
bass, because my note isn't low enough, but I think it sounds okay.

G|---------------------------------------------------------------------
D|---------------------------------------------------------------------
A|---------------------------------------------------------------------
D|-0-2-0-2-------------------------------------------------------------

Comments about this tab

No comments/corrections found. Add your own

Complimentary Christian Ringtones
Dadamobile and CGR have teamed up to bring your favorite Christian artists right to your phone. Sign up today and get 10 complementary ringtones!
Tab Country
Did you know CGR has a sister site w/ country guitar tabs? Well we do! Its called Tab Country. It has a great archive with a lot of country tabs.
Rockin Tabs
Are you looking for a site that has rock guitar tabs? Then Rockintabs.com is the place for you. It is a budding site with many rock guitar tabs. Submit your tab today.
Tab Gallery
Tab Gallery has a compilation of christian, rock, and country tabs all in one place. Come visit us.