Bass Tabs
(THIRD DAY) OR BY ARTIST NAME (JENNIFER KNAPP)
0-9|A|B|C|D|E|F|G|H|I|J|K|L|M|N|O|P|Q|R|S|T|U|V|W|X|Y|Z

Join Us Today!

Don't strum alone...
be a part of the largest online Christian music community. Browse thousands of guitar tabs and chat w/ musicians like yourself.


It's Free!

Lifehouse - Hanging By A Moment

This tab has been rated a 4.67 out of 5 for accuracy. (3 votes)Sorry, but you must be logged in to rate this tab.
Click here to log-in, or you can click here to register.
(Registration is free)

All songs owned by Integrity and Brentwood-Benson are used by permission. If you make copies of any song on this website, be sure to report your usage to CCLI.
Song:  Hanging by a moment - bass(better)
Artist:  Lifehouse
Copy:	2000 G-Chills

This is a better version of the song it’s  still probally
not exactly right, but it’ll get ya there.  This tuned low
and even if you have a 5 string bass playing it on a 5 just
doesn’t sound as good.  Trust me I tried it.  My band played
this at out school talent show and it was a “hit”.

Tuning: 

Gb
Db
Ab
Db

Verses:
desperate for changing....

Gb|------------------------------|
Db|-----------------------5-4----|
Ab|---0-5-7-5---0-------------5--|
Db|-0---------0----0-0-0---------|

build up before 2nd chorus is just the open low Db

Choruses
I’m falling even more...

Gb|---------------------------|
Db|--5-4-2-0------------------|
Ab|-----------2-2-2-0---------|
Db|--------------------0-0-0--|

Bridge part 1

There’s nothing else to lose

Gb|-----------------------------------|
Db|-----------------------------------|
Ab|------5-5------5-5-----5-5-----5-5-|
Db|--5-5-----4h5------5-5-----4h5-----|

Gb|------------------------------------|
Db|------7-7--------------7-7----------|
Ab|--5-5-----5-5-7-7--5-5-----5-5-7-7--|
Db|------------------------------------|

Bridge part 2(not exact number of times to play each)

There’s nothing else

Gb|-------------------------------------|
Db|-------------------------------------|
Ab|-------------------------------------|
Db|--5-5-5-5-5--7-7-7-7-7--2-2-2-2-2-2--|

That’s the wholse song.  You can play lightly on the first
chorus if you please.  On the other tab I noticed the
stringed bass part was tabbed out, but I couldn’t make
it sound right.  I apoligise f I’ve messed any of this up.

Scott Beavers
cornpatch777@hotmail.com

Comments about this tab

No comments/corrections found. Add your own

Complimentary Christian Ringtones
Dadamobile and CGR have teamed up to bring your favorite Christian artists right to your phone. Sign up today and get 10 complementary ringtones!
Tab Country
Did you know CGR has a sister site w/ country guitar tabs? Well we do! Its called Tab Country. It has a great archive with a lot of country tabs.
Rockin Tabs
Are you looking for a site that has rock guitar tabs? Then Rockintabs.com is the place for you. It is a budding site with many rock guitar tabs. Submit your tab today.
Tab Gallery
Tab Gallery has a compilation of christian, rock, and country tabs all in one place. Come visit us.