Bass Tabs
(THIRD DAY) OR BY ARTIST NAME (JENNIFER KNAPP)
0-9|A|B|C|D|E|F|G|H|I|J|K|L|M|N|O|P|Q|R|S|T|U|V|W|X|Y|Z

Join Us Today!

Don't strum alone...
be a part of the largest online Christian music community. Browse thousands of guitar tabs and chat w/ musicians like yourself.


It's Free!

Supertones, The - Wilderness

This tab has been rated a 3.67 out of 5 for accuracy. (3 votes)Sorry, but you must be logged in to rate this tab.
Click here to log-in, or you can click here to register.
(Registration is free)

All songs owned by Integrity and Brentwood-Benson are used by permission. If you make copies of any song on this website, be sure to report your usage to CCLI.
Artist: Supertones
Song Title: Wilderness
OC Supertones Loud and Clear. 2000 Tooth and Nail.
Tabbed by Jared Harrison-massive_j@yahoo.com.

Intro 2x
G-------------------------------------|
D-------------------------------------|
A-3-333-33-----------------------3-35-|
E----------1-11-11-5-55-555-3-33--5---|

Verse 2x
G-----------------------------------------------------
D---2--2-3-33223/7-7--7-5-5575-----2--2-3-33223/7-7--7
A-3---3--------------7--------55-3---3--------------7-
E-----------------------------------------------------

G-----------------------------------------------------
D-5-5575-----2--2-3-33223/7-7--7-5-5575-----2--2-3-332
A-------75-3---3--------------7--------55-3---3-------
E-----------------------------------------------------

G---------------5----|
D-23/7-7--7-5-55-75--|
A--------7---------7-|
E--------------------|
Right before it goes in the chorus it just plays A G.

Chorus 4x
G--------------------------|
D--------------------------|
A-33------------------35---|
E------11---55---33-35-----|

Bridge #1 4x
G----------------------------------|
D----------------------------------|
A-----------------3333333333333333-|
E-5555555533333333-----------------|

Bridge #2 2x
G------------------------|
D------------------------|
A-3-3333333-333333-5-5-5-|
E------------------------|

Bridge #3 You can play D C or you can play the little solo he
does. You just got to go with flow on this. This isn’t exactly
what he plays. You have to solo on this one in a way. Make it
up as you go along.

G--------57-75-------|
D------57-----75-----|
A-5-557---------75-3-|
E--------------------|

No bass on end part, but its C,D,A,G,F.
That should be it. Email me with any questions, comments,
or corrections. Rock On 4 Him.

Comments about this tab

No comments/corrections found. Add your own

Complimentary Christian Ringtones
Dadamobile and CGR have teamed up to bring your favorite Christian artists right to your phone. Sign up today and get 10 complementary ringtones!
Tab Country
Did you know CGR has a sister site w/ country guitar tabs? Well we do! Its called Tab Country. It has a great archive with a lot of country tabs.
Rockin Tabs
Are you looking for a site that has rock guitar tabs? Then Rockintabs.com is the place for you. It is a budding site with many rock guitar tabs. Submit your tab today.
Tab Gallery
Tab Gallery has a compilation of christian, rock, and country tabs all in one place. Come visit us.