Bass Tabs
(THIRD DAY) OR BY ARTIST NAME (JENNIFER KNAPP)
0-9|A|B|C|D|E|F|G|H|I|J|K|L|M|N|O|P|Q|R|S|T|U|V|W|X|Y|Z

Join Us Today!

Don't strum alone...
be a part of the largest online Christian music community. Browse thousands of guitar tabs and chat w/ musicians like yourself.


It's Free!

Delirious - Deeper

This tab has been rated a 4.00 out of 5 for accuracy. (1 vote)Sorry, but you must be logged in to rate this tab.
Click here to log-in, or you can click here to register.
(Registration is free)

All songs owned by Integrity and Brentwood-Benson are used by permission. If you make copies of any song on this website, be sure to report your usage to CCLI.
Deeper
Deliriou5?

Ok boys, and girls too.  Here is the song deeper by deliriou5?  I saw it
tabed on here and it looked nothing like the way deliriou5? plays
it.....  no offense punk rawk freak.  I've seen the video to this song
and this is verry close to being correct.  Also my band plays it like
this.  We play it according to the guitar tab (and it sounds pretty darn
right)  Oh yea my typying of the rythem Isn't the best of beats so I
know the beats aren't the right amount, but hey it's the right spot

Intro:

G|-------------------------------------------------|
D|-------------------------------------------------|
A|---7-7-7-7-7-------------4-4-4-4-4---------------|
E|--------------7-7-7-7-7-------------5-5-5-5-5----|

Then play

G|-------------------------------------------------|
D|-------------------------------------------------|
A|---7-7-7-7-7-------------5-5-5-5-5---------------|
E|--------------7-7-7-7-7-------------5-5-5-5-5----|

Verses

G|-------------------------------------------------|
D|-------------------------------------------------|
A|---7-7-7-7-7-7--5-5-5-5-5-5--4-4-4-4-4--2-2-2-2--|
E|-------------------------------------------------|


During the verse when guitars come in

G|---------------------------------------------------------|
D|---------------------------------------------------------|
A|---------------7-7-7-7-7-7-7--4-4-4-4-4-4-4--2-2-2-2-2-2-|
E|--5-5-5-5-5-5--------------------------------------------|


Chorus

G|------------------------------------------------|
D|------------------------------------------------|
A|-------------2-2-2-2-2--4-4-4-4-4---------------|
E|--0-0-0-0-0-------------------------------------|

Second time on the chorus (every second time)

G|------------------------------------------------|
D|------------------------------------------------|
A|-------------2-2-2-2-2--5-5-5-5-5---------------|
E|--0-0-0-0-0-------------------------------------|

And I don't have a clue about the chorus..  If you figure it out please
email me with it at scott1@usit.net

Sott Beavers

Comments about this tab

No comments/corrections found. Add your own

Complimentary Christian Ringtones
Dadamobile and CGR have teamed up to bring your favorite Christian artists right to your phone. Sign up today and get 10 complementary ringtones!
Tab Country
Did you know CGR has a sister site w/ country guitar tabs? Well we do! Its called Tab Country. It has a great archive with a lot of country tabs.
Rockin Tabs
Are you looking for a site that has rock guitar tabs? Then Rockintabs.com is the place for you. It is a budding site with many rock guitar tabs. Submit your tab today.
Tab Gallery
Tab Gallery has a compilation of christian, rock, and country tabs all in one place. Come visit us.