Bass Tabs
(THIRD DAY) OR BY ARTIST NAME (JENNIFER KNAPP)
0-9|A|B|C|D|E|F|G|H|I|J|K|L|M|N|O|P|Q|R|S|T|U|V|W|X|Y|Z

Join Us Today!

Don't strum alone...
be a part of the largest online Christian music community. Browse thousands of guitar tabs and chat w/ musicians like yourself.


It's Free!

Five Iron Frenzy - Amalgamate

This tab has not yet been rated for accuracy.Sorry, but you must be logged in to rate this tab.
Click here to log-in, or you can click here to register.
(Registration is free)

All songs owned by Integrity and Brentwood-Benson are used by permission. If you make copies of any song on this website, be sure to report your usage to CCLI.
Bass Tab for "Amalgamate" by Five Iron Frenzy
Tabbed by Josh Vajda, 3/8/2001
jd_vajdaman@hotmail.com
Upbeats and Beatdowns, 1996
5 Minute Walk Records
Bass - Keith Hoerig
Copyright: 5 Minute Walk Music/ASCAP
Visit http://www.geocities.com/thevajdaman for more tabs and music.
--------------------------------------------------------------------
Instructions:
Nxt = repeat N note t number of times (3x5 would be third fret 5 times)
/ = slide up (or \ is down) from one fret to the next
0 = play open string



Intro:
G| ------------------------------------------
D| 0x4-0/4x6-----------0x4-0/4x6-------------
A| ----------2x4-2/0x5-----------2x4-----0x2-
E| ----------------------------------3x2-----


Verse:
(You've got a cause now...)
G| ----2-----3-6-----------------------2-----3-6---------4-------2-
D| 0-4---0-4-----4---1-4-------2---0-4---0-4-----4---1-4-----5-----
A| ----------------2-----2-0-4---0-----------------2-----------0---
E| --------------------------------------------------------3-------

G| ----2-----3-6-----------------------2-----3-6-----------------2-
D| 0-4---0-4-----4---1-4-------2---0-4---0-4-----4---1-4-----5-----
A| ----------------2-----2-0-4---0-----------------2-----2-----0---
E| --------------------------------------------------------3-------


Chorus:
(We've cut ourselves...)
G| ----------------------------------------------------------------
D| ----------2---2---1-4---------------------1-4---------2-------2-
A| --5-2---0---4---2-----2---4-1-----2-5---2-----2-0-0-4---0-0-4---
E| 3-----3-----------------2-----2-3-----3-------------------------

G| ----------------------------------------------------   G| --2---
D| ----------2---2---1-4-----------------------2---0x9-   D| 4---0-
A| --5-2---0---4---2-----2---4-1-----2-5---0-4---0-----   A| ------
E| 3-----3-----------------2-----2-3-----3-------------   E| ------
                                                          (second time 
through only)

(verse)
(chorus w/3 note addition)
(intro)


Bridge 1:
G| ------------------------------------
D| 0x5-2-4x6---------0x5-2-4x6---------
A| ----------2x5-0x6-----------2x6-----
E| --------------------------------3x8-

Bridge 2: [horn solo]
G| ------------------------------------  G| ----------------------------------
D| ----0-2---4-2-1-------------2-0-----  D| ----0-2---4-2-1-------------------
A| 0-4-----2-------2---2-3---0-----4-0-  A| 0-4-----2-------2---2-3-------0x3-
E| ------------------3-----3-----------  E| ------------------3-----3-3x2-----
                                   (x3)

(verse)
(chorus)

Comments about this tab

Jonodude - 2004-05-09

Here is your main riff, on the G and B strings:

B-------------13h15-15--
G--12--14-14------------

It has a certain rhythm; listen to the song for it.


Add a comment/correction

Complimentary Christian Ringtones
Dadamobile and CGR have teamed up to bring your favorite Christian artists right to your phone. Sign up today and get 10 complementary ringtones!
Tab Country
Did you know CGR has a sister site w/ country guitar tabs? Well we do! Its called Tab Country. It has a great archive with a lot of country tabs.
Rockin Tabs
Are you looking for a site that has rock guitar tabs? Then Rockintabs.com is the place for you. It is a budding site with many rock guitar tabs. Submit your tab today.
Tab Gallery
Tab Gallery has a compilation of christian, rock, and country tabs all in one place. Come visit us.