Bass Tabs
(THIRD DAY) OR BY ARTIST NAME (JENNIFER KNAPP)
0-9|A|B|C|D|E|F|G|H|I|J|K|L|M|N|O|P|Q|R|S|T|U|V|W|X|Y|Z

Join Us Today!

Don't strum alone...
be a part of the largest online Christian music community. Browse thousands of guitar tabs and chat w/ musicians like yourself.


It's Free!

Philmore - If You Only Knew

This tab has not yet been rated for accuracy.Sorry, but you must be logged in to rate this tab.
Click here to log-in, or you can click here to register.
(Registration is free)

All songs owned by Integrity and Brentwood-Benson are used by permission. If you make copies of any song on this website, be sure to report your usage to CCLI.
Artist: Philmore 
Song: If You Only Knew
Standard Tuning

i corrected my own mistake in line #13
(1)Verse “If you only knew...”:
G--------------------------------------------------------
D--------------------------------------------------------
A-5-5-5-5-5-5--------------------------------------------
E----------------2-2-2-2-2-2--3-3-3-3-3-3--5-5-5-5-5-5---
(2)
G---------------------------------------------------------
D---------------------------------------------------------
A-5-5-5-5-5-5--9-9-9-9-9-9--------------------------------
E--------------------------------3-3-3-3-3-3--5-5-5-5-5-5-
(3)
G--------------------------------------------------------------
D--------------------------------------------------------------
A-5-5-5-5-5-5--------------------------------12-12-12-12-12-12-
E----------------2-2-2-2-2-2--3-3-3-3-3-3----------------------
(4)
G---------------------------------------------------------
D---------------------------------------------------------
A-5-5-5-5-5-5--9-9-9-9-9-9--------------------------------
E--------------------------------3-3-3-3-3-3--5-5-5-5-5-5-

(5)Chorus 1 “You know, I died...”:
G-------------------
D-------------------
A----5~-------------
E--------2~--3~--5~-

(6)”I suffered and gave...”:
G------------------------------------------------------------
D------------------------------------------------------------
A-5-5-5-5-5-5--9-9-9-9-9-9-9---------------12-12-12-12-12-12-
E----------------------------------3-3-3-3-3-3---------------
(7)
G----------------------------------------------------------
D----------------------------------------------------------
A-5-5-5-5-5-5--9-9-9-9-9-9---------------------------------
E---------------------------------3-3-3-3-3-3--5-5-5-5-5-5-
(8)Chorus 2:
G-------------------------------------------------------
D-------------------------------------------------------
A-5-5-5-5-5-5-------------------------------------------
E-----------------2-2-2-2-2-2--3-3-3-3-3-3--5-5-5-5-5-5-
(9) “I love you so much...”:
G----------------------------------------------------
D----------------------------------------------------
A----------------------------------------------------
E-7-7-7-7-7-7--2-2-2-2-2-2--3-3-3-3-3-3--3-3-3-3-3-3-
(10)(The  “>” means play lots)
G-----------------------------------
D-----------------------------------
A--------------------------------10>
E-7-7-7-7-7-7--2-2-2-2-2-2/---------
(11)
G---------------------------
D---------------------------
A---------------------------  
E-0-0-0-2-0-3-3-3-3-3-3-3-3-
(12)
E----0-0-0-2-0-3-3-3-3-3-3-3-6-6-6-6-6-5-6
(13) -Again, the “>” means play lots
G------------------------------
D------------------------------
A-----------------9>------19>--
E--4>-0-6>-7>-----12>----------


Order: (I numbered the riffs so it would be easier to follow-This song is pretty much
the same notes, just in different orders so it is easily mixed up)
1, 2, 3, 4, 5(2x), 1, 2, 6, 7, 8(2x), 9, 10, 11(2x), 12, 13, 8(2x), 9(2x)

Comments about this tab

No comments/corrections found. Add your own

Complimentary Christian Ringtones
Dadamobile and CGR have teamed up to bring your favorite Christian artists right to your phone. Sign up today and get 10 complementary ringtones!
Tab Country
Did you know CGR has a sister site w/ country guitar tabs? Well we do! Its called Tab Country. It has a great archive with a lot of country tabs.
Rockin Tabs
Are you looking for a site that has rock guitar tabs? Then Rockintabs.com is the place for you. It is a budding site with many rock guitar tabs. Submit your tab today.
Tab Gallery
Tab Gallery has a compilation of christian, rock, and country tabs all in one place. Come visit us.